ISO-10303-21;
HEADER;
FILE_DESCRIPTION(('FreeCAD Model'),'2;1');
FILE_NAME(
  'C:/Users/Malte/Documents/FreeCAD/models/AA_Zelle/AA_Zelle.step',
  '2020-04-07T14:36:22',('Author'),(''),
  'Open CASCADE STEP processor 6.8','FreeCAD','Unknown');
FILE_SCHEMA(('AUTOMOTIVE_DESIGN_CC2 { 1 2 10303 214 -1 1 5 4 }'));
ENDSEC;
DATA;
#1 = APPLICATION_PROTOCOL_DEFINITION('committee draft',
  'automotive_design',1997,#2);
#2 = APPLICATION_CONTEXT(
  'core data for automotive mechanical design processes');
#3 = SHAPE_DEFINITION_REPRESENTATION(#4,#10);
#4 = PRODUCT_DEFINITION_SHAPE('','',#5);
#5 = PRODUCT_DEFINITION('design','',#6,#9);
#6 = PRODUCT_DEFINITION_FORMATION('','',#7);
#7 = PRODUCT('AA_Zelle','AA_Zelle','',(#8));
#8 = MECHANICAL_CONTEXT('',#2,'mechanical');
#9 = PRODUCT_DEFINITION_CONTEXT('part definition',#2,'design');
#10 = ADVANCED_BREP_SHAPE_REPRESENTATION('',(#11,#15),#348);
#11 = AXIS2_PLACEMENT_3D('',#12,#13,#14);
#12 = CARTESIAN_POINT('',(0.E+000,0.E+000,0.E+000));
#13 = DIRECTION('',(0.E+000,0.E+000,1.));
#14 = DIRECTION('',(1.,0.E+000,-0.E+000));
#15 = MANIFOLD_SOLID_BREP('',#16);
#16 = CLOSED_SHELL('',(#17,#54,#109,#144,#199,#254,#289,#344));
#17 = ADVANCED_FACE('',(#18),#31,.T.);
#18 = FACE_BOUND('',#19,.F.);
#19 = EDGE_LOOP('',(#20));
#20 = ORIENTED_EDGE('',*,*,#21,.F.);
#21 = EDGE_CURVE('',#22,#22,#24,.T.);
#22 = VERTEX_POINT('',#23);
#23 = CARTESIAN_POINT('',(4.5,0.E+000,0.E+000));
#24 = SURFACE_CURVE('',#25,(#30,#42),.PCURVE_S1.);
#25 = CIRCLE('',#26,4.5);
#26 = AXIS2_PLACEMENT_3D('',#27,#28,#29);
#27 = CARTESIAN_POINT('',(0.E+000,0.E+000,0.E+000));
#28 = DIRECTION('',(0.E+000,2.22044604925E-016,-1.));
#29 = DIRECTION('',(1.,0.E+000,0.E+000));
#30 = PCURVE('',#31,#36);
#31 = PLANE('',#32);
#32 = AXIS2_PLACEMENT_3D('',#33,#34,#35);
#33 = CARTESIAN_POINT('',(0.E+000,0.E+000,0.E+000));
#34 = DIRECTION('',(0.E+000,2.22044604925E-016,-1.));
#35 = DIRECTION('',(1.,0.E+000,0.E+000));
#36 = DEFINITIONAL_REPRESENTATION('',(#37),#41);
#37 = CIRCLE('',#38,4.5);
#38 = AXIS2_PLACEMENT_2D('',#39,#40);
#39 = CARTESIAN_POINT('',(0.E+000,0.E+000));
#40 = DIRECTION('',(1.,-0.E+000));
#41 = ( GEOMETRIC_REPRESENTATION_CONTEXT(2) 
PARAMETRIC_REPRESENTATION_CONTEXT() REPRESENTATION_CONTEXT('2D SPACE',''
  ) );
#42 = PCURVE('',#43,#48);
#43 = CYLINDRICAL_SURFACE('',#44,4.5);
#44 = AXIS2_PLACEMENT_3D('',#45,#46,#47);
#45 = CARTESIAN_POINT('',(0.E+000,0.E+000,0.E+000));
#46 = DIRECTION('',(0.E+000,-2.22044604925E-016,1.));
#47 = DIRECTION('',(1.,0.E+000,0.E+000));
#48 = DEFINITIONAL_REPRESENTATION('',(#49),#53);
#49 = LINE('',#50,#51);
#50 = CARTESIAN_POINT('',(-0.E+000,0.E+000));
#51 = VECTOR('',#52,1.);
#52 = DIRECTION('',(-1.,0.E+000));
#53 = ( GEOMETRIC_REPRESENTATION_CONTEXT(2) 
PARAMETRIC_REPRESENTATION_CONTEXT() REPRESENTATION_CONTEXT('2D SPACE',''
  ) );
#54 = ADVANCED_FACE('',(#55),#43,.T.);
#55 = FACE_BOUND('',#56,.F.);
#56 = EDGE_LOOP('',(#57,#58,#81,#108));
#57 = ORIENTED_EDGE('',*,*,#21,.T.);
#58 = ORIENTED_EDGE('',*,*,#59,.T.);
#59 = EDGE_CURVE('',#22,#60,#62,.T.);
#60 = VERTEX_POINT('',#61);
#61 = CARTESIAN_POINT('',(4.5,-1.110223024625E-016,0.5));
#62 = SEAM_CURVE('',#63,(#67,#74),.PCURVE_S1.);
#63 = LINE('',#64,#65);
#64 = CARTESIAN_POINT('',(4.5,0.E+000,0.E+000));
#65 = VECTOR('',#66,1.);
#66 = DIRECTION('',(0.E+000,-2.22044604925E-016,1.));
#67 = PCURVE('',#43,#68);
#68 = DEFINITIONAL_REPRESENTATION('',(#69),#73);
#69 = LINE('',#70,#71);
#70 = CARTESIAN_POINT('',(-0.E+000,0.E+000));
#71 = VECTOR('',#72,1.);
#72 = DIRECTION('',(-0.E+000,1.));
#73 = ( GEOMETRIC_REPRESENTATION_CONTEXT(2) 
PARAMETRIC_REPRESENTATION_CONTEXT() REPRESENTATION_CONTEXT('2D SPACE',''
  ) );
#74 = PCURVE('',#43,#75);
#75 = DEFINITIONAL_REPRESENTATION('',(#76),#80);
#76 = LINE('',#77,#78);
#77 = CARTESIAN_POINT('',(-6.28318530718,0.E+000));
#78 = VECTOR('',#79,1.);
#79 = DIRECTION('',(-0.E+000,1.));
#80 = ( GEOMETRIC_REPRESENTATION_CONTEXT(2) 
PARAMETRIC_REPRESENTATION_CONTEXT() REPRESENTATION_CONTEXT('2D SPACE',''
  ) );
#81 = ORIENTED_EDGE('',*,*,#82,.F.);
#82 = EDGE_CURVE('',#60,#60,#83,.T.);
#83 = SURFACE_CURVE('',#84,(#89,#96),.PCURVE_S1.);
#84 = CIRCLE('',#85,4.5);
#85 = AXIS2_PLACEMENT_3D('',#86,#87,#88);
#86 = CARTESIAN_POINT('',(0.E+000,-1.110223024625E-016,0.5));
#87 = DIRECTION('',(0.E+000,2.22044604925E-016,-1.));
#88 = DIRECTION('',(1.,0.E+000,0.E+000));
#89 = PCURVE('',#43,#90);
#90 = DEFINITIONAL_REPRESENTATION('',(#91),#95);
#91 = LINE('',#92,#93);
#92 = CARTESIAN_POINT('',(-0.E+000,0.5));
#93 = VECTOR('',#94,1.);
#94 = DIRECTION('',(-1.,0.E+000));
#95 = ( GEOMETRIC_REPRESENTATION_CONTEXT(2) 
PARAMETRIC_REPRESENTATION_CONTEXT() REPRESENTATION_CONTEXT('2D SPACE',''
  ) );
#96 = PCURVE('',#97,#102);
#97 = PLANE('',#98);
#98 = AXIS2_PLACEMENT_3D('',#99,#100,#101);
#99 = CARTESIAN_POINT('',(0.E+000,-1.110223024625E-016,0.5));
#100 = DIRECTION('',(0.E+000,2.22044604925E-016,-1.));
#101 = DIRECTION('',(1.,0.E+000,0.E+000));
#102 = DEFINITIONAL_REPRESENTATION('',(#103),#107);
#103 = CIRCLE('',#104,4.5);
#104 = AXIS2_PLACEMENT_2D('',#105,#106);
#105 = CARTESIAN_POINT('',(0.E+000,0.E+000));
#106 = DIRECTION('',(1.,-0.E+000));
#107 = ( GEOMETRIC_REPRESENTATION_CONTEXT(2) 
PARAMETRIC_REPRESENTATION_CONTEXT() REPRESENTATION_CONTEXT('2D SPACE',''
  ) );
#108 = ORIENTED_EDGE('',*,*,#59,.F.);
#109 = ADVANCED_FACE('',(#110,#113),#97,.T.);
#110 = FACE_BOUND('',#111,.F.);
#111 = EDGE_LOOP('',(#112));
#112 = ORIENTED_EDGE('',*,*,#82,.T.);
#113 = FACE_BOUND('',#114,.F.);
#114 = EDGE_LOOP('',(#115));
#115 = ORIENTED_EDGE('',*,*,#116,.F.);
#116 = EDGE_CURVE('',#117,#117,#119,.T.);
#117 = VERTEX_POINT('',#118);
#118 = CARTESIAN_POINT('',(7.,-1.110223024625E-016,0.5));
#119 = SURFACE_CURVE('',#120,(#125,#132),.PCURVE_S1.);
#120 = CIRCLE('',#121,7.);
#121 = AXIS2_PLACEMENT_3D('',#122,#123,#124);
#122 = CARTESIAN_POINT('',(0.E+000,-1.110223024625E-016,0.5));
#123 = DIRECTION('',(0.E+000,2.22044604925E-016,-1.));
#124 = DIRECTION('',(1.,0.E+000,0.E+000));
#125 = PCURVE('',#97,#126);
#126 = DEFINITIONAL_REPRESENTATION('',(#127),#131);
#127 = CIRCLE('',#128,7.);
#128 = AXIS2_PLACEMENT_2D('',#129,#130);
#129 = CARTESIAN_POINT('',(0.E+000,0.E+000));
#130 = DIRECTION('',(1.,-0.E+000));
#131 = ( GEOMETRIC_REPRESENTATION_CONTEXT(2) 
PARAMETRIC_REPRESENTATION_CONTEXT() REPRESENTATION_CONTEXT('2D SPACE',''
  ) );
#132 = PCURVE('',#133,#138);
#133 = CYLINDRICAL_SURFACE('',#134,7.);
#134 = AXIS2_PLACEMENT_3D('',#135,#136,#137);
#135 = CARTESIAN_POINT('',(0.E+000,-1.110223024625E-016,0.5));
#136 = DIRECTION('',(0.E+000,-2.22044604925E-016,1.));
#137 = DIRECTION('',(1.,0.E+000,0.E+000));
#138 = DEFINITIONAL_REPRESENTATION('',(#139),#143);
#139 = LINE('',#140,#141);
#140 = CARTESIAN_POINT('',(-0.E+000,0.E+000));
#141 = VECTOR('',#142,1.);
#142 = DIRECTION('',(-1.,0.E+000));
#143 = ( GEOMETRIC_REPRESENTATION_CONTEXT(2) 
PARAMETRIC_REPRESENTATION_CONTEXT() REPRESENTATION_CONTEXT('2D SPACE',''
  ) );
#144 = ADVANCED_FACE('',(#145),#133,.T.);
#145 = FACE_BOUND('',#146,.F.);
#146 = EDGE_LOOP('',(#147,#170,#171,#172));
#147 = ORIENTED_EDGE('',*,*,#148,.F.);
#148 = EDGE_CURVE('',#117,#149,#151,.T.);
#149 = VERTEX_POINT('',#150);
#150 = CARTESIAN_POINT('',(7.,-4.440892098501E-015,40.));
#151 = SEAM_CURVE('',#152,(#156,#163),.PCURVE_S1.);
#152 = LINE('',#153,#154);
#153 = CARTESIAN_POINT('',(7.,-1.110223024625E-016,0.5));
#154 = VECTOR('',#155,1.);
#155 = DIRECTION('',(0.E+000,-2.22044604925E-016,1.));
#156 = PCURVE('',#133,#157);
#157 = DEFINITIONAL_REPRESENTATION('',(#158),#162);
#158 = LINE('',#159,#160);
#159 = CARTESIAN_POINT('',(-0.E+000,0.E+000));
#160 = VECTOR('',#161,1.);
#161 = DIRECTION('',(-0.E+000,1.));
#162 = ( GEOMETRIC_REPRESENTATION_CONTEXT(2) 
PARAMETRIC_REPRESENTATION_CONTEXT() REPRESENTATION_CONTEXT('2D SPACE',''
  ) );
#163 = PCURVE('',#133,#164);
#164 = DEFINITIONAL_REPRESENTATION('',(#165),#169);
#165 = LINE('',#166,#167);
#166 = CARTESIAN_POINT('',(-6.28318530718,0.E+000));
#167 = VECTOR('',#168,1.);
#168 = DIRECTION('',(-0.E+000,1.));
#169 = ( GEOMETRIC_REPRESENTATION_CONTEXT(2) 
PARAMETRIC_REPRESENTATION_CONTEXT() REPRESENTATION_CONTEXT('2D SPACE',''
  ) );
#170 = ORIENTED_EDGE('',*,*,#116,.T.);
#171 = ORIENTED_EDGE('',*,*,#148,.T.);
#172 = ORIENTED_EDGE('',*,*,#173,.F.);
#173 = EDGE_CURVE('',#149,#149,#174,.T.);
#174 = SURFACE_CURVE('',#175,(#180,#187),.PCURVE_S1.);
#175 = CIRCLE('',#176,7.);
#176 = AXIS2_PLACEMENT_3D('',#177,#178,#179);
#177 = CARTESIAN_POINT('',(0.E+000,0.E+000,40.));
#178 = DIRECTION('',(0.E+000,3.330669073875E-016,-1.));
#179 = DIRECTION('',(1.,0.E+000,0.E+000));
#180 = PCURVE('',#133,#181);
#181 = DEFINITIONAL_REPRESENTATION('',(#182),#186);
#182 = LINE('',#183,#184);
#183 = CARTESIAN_POINT('',(-0.E+000,39.5));
#184 = VECTOR('',#185,1.);
#185 = DIRECTION('',(-1.,0.E+000));
#186 = ( GEOMETRIC_REPRESENTATION_CONTEXT(2) 
PARAMETRIC_REPRESENTATION_CONTEXT() REPRESENTATION_CONTEXT('2D SPACE',''
  ) );
#187 = PCURVE('',#188,#193);
#188 = CYLINDRICAL_SURFACE('',#189,7.);
#189 = AXIS2_PLACEMENT_3D('',#190,#191,#192);
#190 = CARTESIAN_POINT('',(0.E+000,0.E+000,40.));
#191 = DIRECTION('',(0.E+000,-3.330669073875E-016,1.));
#192 = DIRECTION('',(1.,0.E+000,0.E+000));
#193 = DEFINITIONAL_REPRESENTATION('',(#194),#198);
#194 = LINE('',#195,#196);
#195 = CARTESIAN_POINT('',(-0.E+000,0.E+000));
#196 = VECTOR('',#197,1.);
#197 = DIRECTION('',(-1.,0.E+000));
#198 = ( GEOMETRIC_REPRESENTATION_CONTEXT(2) 
PARAMETRIC_REPRESENTATION_CONTEXT() REPRESENTATION_CONTEXT('2D SPACE',''
  ) );
#199 = ADVANCED_FACE('',(#200),#188,.T.);
#200 = FACE_BOUND('',#201,.F.);
#201 = EDGE_LOOP('',(#202,#225,#226,#227));
#202 = ORIENTED_EDGE('',*,*,#203,.F.);
#203 = EDGE_CURVE('',#149,#204,#206,.T.);
#204 = VERTEX_POINT('',#205);
#205 = CARTESIAN_POINT('',(7.,-4.996003610813E-015,49.));
#206 = SEAM_CURVE('',#207,(#211,#218),.PCURVE_S1.);
#207 = LINE('',#208,#209);
#208 = CARTESIAN_POINT('',(7.,0.E+000,40.));
#209 = VECTOR('',#210,1.);
#210 = DIRECTION('',(0.E+000,-5.551115123126E-016,1.));
#211 = PCURVE('',#188,#212);
#212 = DEFINITIONAL_REPRESENTATION('',(#213),#217);
#213 = LINE('',#214,#215);
#214 = CARTESIAN_POINT('',(-0.E+000,0.E+000));
#215 = VECTOR('',#216,1.);
#216 = DIRECTION('',(-0.E+000,1.));
#217 = ( GEOMETRIC_REPRESENTATION_CONTEXT(2) 
PARAMETRIC_REPRESENTATION_CONTEXT() REPRESENTATION_CONTEXT('2D SPACE',''
  ) );
#218 = PCURVE('',#188,#219);
#219 = DEFINITIONAL_REPRESENTATION('',(#220),#224);
#220 = LINE('',#221,#222);
#221 = CARTESIAN_POINT('',(-6.28318530718,0.E+000));
#222 = VECTOR('',#223,1.);
#223 = DIRECTION('',(-0.E+000,1.));
#224 = ( GEOMETRIC_REPRESENTATION_CONTEXT(2) 
PARAMETRIC_REPRESENTATION_CONTEXT() REPRESENTATION_CONTEXT('2D SPACE',''
  ) );
#225 = ORIENTED_EDGE('',*,*,#173,.T.);
#226 = ORIENTED_EDGE('',*,*,#203,.T.);
#227 = ORIENTED_EDGE('',*,*,#228,.F.);
#228 = EDGE_CURVE('',#204,#204,#229,.T.);
#229 = SURFACE_CURVE('',#230,(#235,#242),.PCURVE_S1.);
#230 = CIRCLE('',#231,7.);
#231 = AXIS2_PLACEMENT_3D('',#232,#233,#234);
#232 = CARTESIAN_POINT('',(0.E+000,-2.997602166488E-015,49.));
#233 = DIRECTION('',(1.094764425254E-047,3.330669073875E-016,-1.));
#234 = DIRECTION('',(1.,-2.854859206179E-016,-9.508591268289E-032));
#235 = PCURVE('',#188,#236);
#236 = DEFINITIONAL_REPRESENTATION('',(#237),#241);
#237 = LINE('',#238,#239);
#238 = CARTESIAN_POINT('',(-0.E+000,9.));
#239 = VECTOR('',#240,1.);
#240 = DIRECTION('',(-1.,0.E+000));
#241 = ( GEOMETRIC_REPRESENTATION_CONTEXT(2) 
PARAMETRIC_REPRESENTATION_CONTEXT() REPRESENTATION_CONTEXT('2D SPACE',''
  ) );
#242 = PCURVE('',#243,#248);
#243 = PLANE('',#244);
#244 = AXIS2_PLACEMENT_3D('',#245,#246,#247);
#245 = CARTESIAN_POINT('',(0.E+000,-2.997602166488E-015,49.));
#246 = DIRECTION('',(-0.E+000,3.330669073875E-016,-1.));
#247 = DIRECTION('',(1.,-2.854859206179E-016,-9.508591268289E-032));
#248 = DEFINITIONAL_REPRESENTATION('',(#249),#253);
#249 = CIRCLE('',#250,7.);
#250 = AXIS2_PLACEMENT_2D('',#251,#252);
#251 = CARTESIAN_POINT('',(0.E+000,0.E+000));
#252 = DIRECTION('',(1.,0.E+000));
#253 = ( GEOMETRIC_REPRESENTATION_CONTEXT(2) 
PARAMETRIC_REPRESENTATION_CONTEXT() REPRESENTATION_CONTEXT('2D SPACE',''
  ) );
#254 = ADVANCED_FACE('',(#255,#258),#243,.F.);
#255 = FACE_BOUND('',#256,.F.);
#256 = EDGE_LOOP('',(#257));
#257 = ORIENTED_EDGE('',*,*,#228,.T.);
#258 = FACE_BOUND('',#259,.F.);
#259 = EDGE_LOOP('',(#260));
#260 = ORIENTED_EDGE('',*,*,#261,.F.);
#261 = EDGE_CURVE('',#262,#262,#264,.T.);
#262 = VERTEX_POINT('',#263);
#263 = CARTESIAN_POINT('',(2.5,-4.996003610813E-015,49.));
#264 = SURFACE_CURVE('',#265,(#270,#277),.PCURVE_S1.);
#265 = CIRCLE('',#266,2.5);
#266 = AXIS2_PLACEMENT_3D('',#267,#268,#269);
#267 = CARTESIAN_POINT('',(0.E+000,-2.997602166488E-015,49.));
#268 = DIRECTION('',(0.E+000,3.330669073875E-016,-1.));
#269 = DIRECTION('',(1.,-7.993605777301E-016,-2.662405555121E-031));
#270 = PCURVE('',#243,#271);
#271 = DEFINITIONAL_REPRESENTATION('',(#272),#276);
#272 = CIRCLE('',#273,2.5);
#273 = AXIS2_PLACEMENT_2D('',#274,#275);
#274 = CARTESIAN_POINT('',(0.E+000,0.E+000));
#275 = DIRECTION('',(1.,5.138746571122E-016));
#276 = ( GEOMETRIC_REPRESENTATION_CONTEXT(2) 
PARAMETRIC_REPRESENTATION_CONTEXT() REPRESENTATION_CONTEXT('2D SPACE',''
  ) );
#277 = PCURVE('',#278,#283);
#278 = CYLINDRICAL_SURFACE('',#279,2.5);
#279 = AXIS2_PLACEMENT_3D('',#280,#281,#282);
#280 = CARTESIAN_POINT('',(0.E+000,-2.997602166488E-015,49.));
#281 = DIRECTION('',(0.E+000,-3.330669073875E-016,1.));
#282 = DIRECTION('',(1.,-7.993605777301E-016,-2.662405555121E-031));
#283 = DEFINITIONAL_REPRESENTATION('',(#284),#288);
#284 = LINE('',#285,#286);
#285 = CARTESIAN_POINT('',(-0.E+000,0.E+000));
#286 = VECTOR('',#287,1.);
#287 = DIRECTION('',(-1.,0.E+000));
#288 = ( GEOMETRIC_REPRESENTATION_CONTEXT(2) 
PARAMETRIC_REPRESENTATION_CONTEXT() REPRESENTATION_CONTEXT('2D SPACE',''
  ) );
#289 = ADVANCED_FACE('',(#290),#278,.T.);
#290 = FACE_BOUND('',#291,.F.);
#291 = EDGE_LOOP('',(#292,#293,#316,#343));
#292 = ORIENTED_EDGE('',*,*,#261,.T.);
#293 = ORIENTED_EDGE('',*,*,#294,.T.);
#294 = EDGE_CURVE('',#262,#295,#297,.T.);
#295 = VERTEX_POINT('',#296);
#296 = CARTESIAN_POINT('',(2.5,-5.551115123126E-015,50.));
#297 = SEAM_CURVE('',#298,(#302,#309),.PCURVE_S1.);
#298 = LINE('',#299,#300);
#299 = CARTESIAN_POINT('',(2.5,-4.996003610813E-015,49.));
#300 = VECTOR('',#301,1.);
#301 = DIRECTION('',(0.E+000,-5.551115123126E-016,1.));
#302 = PCURVE('',#278,#303);
#303 = DEFINITIONAL_REPRESENTATION('',(#304),#308);
#304 = LINE('',#305,#306);
#305 = CARTESIAN_POINT('',(-0.E+000,0.E+000));
#306 = VECTOR('',#307,1.);
#307 = DIRECTION('',(-0.E+000,1.));
#308 = ( GEOMETRIC_REPRESENTATION_CONTEXT(2) 
PARAMETRIC_REPRESENTATION_CONTEXT() REPRESENTATION_CONTEXT('2D SPACE',''
  ) );
#309 = PCURVE('',#278,#310);
#310 = DEFINITIONAL_REPRESENTATION('',(#311),#315);
#311 = LINE('',#312,#313);
#312 = CARTESIAN_POINT('',(-6.28318530718,0.E+000));
#313 = VECTOR('',#314,1.);
#314 = DIRECTION('',(-0.E+000,1.));
#315 = ( GEOMETRIC_REPRESENTATION_CONTEXT(2) 
PARAMETRIC_REPRESENTATION_CONTEXT() REPRESENTATION_CONTEXT('2D SPACE',''
  ) );
#316 = ORIENTED_EDGE('',*,*,#317,.F.);
#317 = EDGE_CURVE('',#295,#295,#318,.T.);
#318 = SURFACE_CURVE('',#319,(#324,#331),.PCURVE_S1.);
#319 = CIRCLE('',#320,2.5);
#320 = AXIS2_PLACEMENT_3D('',#321,#322,#323);
#321 = CARTESIAN_POINT('',(0.E+000,-3.330669073875E-015,50.));
#322 = DIRECTION('',(4.379057701015E-047,3.330669073875E-016,-1.));
#323 = DIRECTION('',(1.,-8.881784197001E-016,-2.958228394579E-031));
#324 = PCURVE('',#278,#325);
#325 = DEFINITIONAL_REPRESENTATION('',(#326),#330);
#326 = LINE('',#327,#328);
#327 = CARTESIAN_POINT('',(-0.E+000,1.));
#328 = VECTOR('',#329,1.);
#329 = DIRECTION('',(-1.,0.E+000));
#330 = ( GEOMETRIC_REPRESENTATION_CONTEXT(2) 
PARAMETRIC_REPRESENTATION_CONTEXT() REPRESENTATION_CONTEXT('2D SPACE',''
  ) );
#331 = PCURVE('',#332,#337);
#332 = PLANE('',#333);
#333 = AXIS2_PLACEMENT_3D('',#334,#335,#336);
#334 = CARTESIAN_POINT('',(0.E+000,-3.330669073875E-015,50.));
#335 = DIRECTION('',(-0.E+000,3.330669073875E-016,-1.));
#336 = DIRECTION('',(1.,-8.881784197001E-016,-2.958228394579E-031));
#337 = DEFINITIONAL_REPRESENTATION('',(#338),#342);
#338 = CIRCLE('',#339,2.5);
#339 = AXIS2_PLACEMENT_2D('',#340,#341);
#340 = CARTESIAN_POINT('',(0.E+000,0.E+000));
#341 = DIRECTION('',(1.,0.E+000));
#342 = ( GEOMETRIC_REPRESENTATION_CONTEXT(2) 
PARAMETRIC_REPRESENTATION_CONTEXT() REPRESENTATION_CONTEXT('2D SPACE',''
  ) );
#343 = ORIENTED_EDGE('',*,*,#294,.F.);
#344 = ADVANCED_FACE('',(#345),#332,.F.);
#345 = FACE_BOUND('',#346,.F.);
#346 = EDGE_LOOP('',(#347));
#347 = ORIENTED_EDGE('',*,*,#317,.T.);
#348 = ( GEOMETRIC_REPRESENTATION_CONTEXT(3) 
GLOBAL_UNCERTAINTY_ASSIGNED_CONTEXT((#352)) GLOBAL_UNIT_ASSIGNED_CONTEXT
((#349,#350,#351)) REPRESENTATION_CONTEXT('Context #1',
  '3D Context with UNIT and UNCERTAINTY') );
#349 = ( LENGTH_UNIT() NAMED_UNIT(*) SI_UNIT(.MILLI.,.METRE.) );
#350 = ( NAMED_UNIT(*) PLANE_ANGLE_UNIT() SI_UNIT($,.RADIAN.) );
#351 = ( NAMED_UNIT(*) SI_UNIT($,.STERADIAN.) SOLID_ANGLE_UNIT() );
#352 = UNCERTAINTY_MEASURE_WITH_UNIT(LENGTH_MEASURE(1.E-007),#349,
  'distance_accuracy_value','confusion accuracy');
#353 = PRODUCT_TYPE('part',$,(#7));
#354 = MECHANICAL_DESIGN_GEOMETRIC_PRESENTATION_REPRESENTATION('',(#355,
    #363,#370,#377,#384,#392,#399,#406),#348);
#355 = STYLED_ITEM('color',(#356),#17);
#356 = PRESENTATION_STYLE_ASSIGNMENT((#357));
#357 = SURFACE_STYLE_USAGE(.BOTH.,#358);
#358 = SURFACE_SIDE_STYLE('',(#359));
#359 = SURFACE_STYLE_FILL_AREA(#360);
#360 = FILL_AREA_STYLE('',(#361));
#361 = FILL_AREA_STYLE_COLOUR('',#362);
#362 = COLOUR_RGB('',0.E+000,0.329411774874,0.501960813999);
#363 = STYLED_ITEM('color',(#364),#54);
#364 = PRESENTATION_STYLE_ASSIGNMENT((#365));
#365 = SURFACE_STYLE_USAGE(.BOTH.,#366);
#366 = SURFACE_SIDE_STYLE('',(#367));
#367 = SURFACE_STYLE_FILL_AREA(#368);
#368 = FILL_AREA_STYLE('',(#369));
#369 = FILL_AREA_STYLE_COLOUR('',#362);
#370 = STYLED_ITEM('color',(#371),#109);
#371 = PRESENTATION_STYLE_ASSIGNMENT((#372));
#372 = SURFACE_STYLE_USAGE(.BOTH.,#373);
#373 = SURFACE_SIDE_STYLE('',(#374));
#374 = SURFACE_STYLE_FILL_AREA(#375);
#375 = FILL_AREA_STYLE('',(#376));
#376 = FILL_AREA_STYLE_COLOUR('',#362);
#377 = STYLED_ITEM('color',(#378),#144);
#378 = PRESENTATION_STYLE_ASSIGNMENT((#379));
#379 = SURFACE_STYLE_USAGE(.BOTH.,#380);
#380 = SURFACE_SIDE_STYLE('',(#381));
#381 = SURFACE_STYLE_FILL_AREA(#382);
#382 = FILL_AREA_STYLE('',(#383));
#383 = FILL_AREA_STYLE_COLOUR('',#362);
#384 = STYLED_ITEM('color',(#385),#199);
#385 = PRESENTATION_STYLE_ASSIGNMENT((#386));
#386 = SURFACE_STYLE_USAGE(.BOTH.,#387);
#387 = SURFACE_SIDE_STYLE('',(#388));
#388 = SURFACE_STYLE_FILL_AREA(#389);
#389 = FILL_AREA_STYLE('',(#390));
#390 = FILL_AREA_STYLE_COLOUR('',#391);
#391 = COLOUR_RGB('',0.800000011921,0.780392169952,0.780392169952);
#392 = STYLED_ITEM('color',(#393),#254);
#393 = PRESENTATION_STYLE_ASSIGNMENT((#394));
#394 = SURFACE_STYLE_USAGE(.BOTH.,#395);
#395 = SURFACE_SIDE_STYLE('',(#396));
#396 = SURFACE_STYLE_FILL_AREA(#397);
#397 = FILL_AREA_STYLE('',(#398));
#398 = FILL_AREA_STYLE_COLOUR('',#391);
#399 = STYLED_ITEM('color',(#400),#289);
#400 = PRESENTATION_STYLE_ASSIGNMENT((#401));
#401 = SURFACE_STYLE_USAGE(.BOTH.,#402);
#402 = SURFACE_SIDE_STYLE('',(#403));
#403 = SURFACE_STYLE_FILL_AREA(#404);
#404 = FILL_AREA_STYLE('',(#405));
#405 = FILL_AREA_STYLE_COLOUR('',#391);
#406 = STYLED_ITEM('color',(#407),#344);
#407 = PRESENTATION_STYLE_ASSIGNMENT((#408));
#408 = SURFACE_STYLE_USAGE(.BOTH.,#409);
#409 = SURFACE_SIDE_STYLE('',(#410));
#410 = SURFACE_STYLE_FILL_AREA(#411);
#411 = FILL_AREA_STYLE('',(#412));
#412 = FILL_AREA_STYLE_COLOUR('',#391);
ENDSEC;
END-ISO-10303-21;
