ISO-10303-21;
HEADER;
FILE_DESCRIPTION(('FreeCAD Model'),'2;1');
FILE_NAME(
'C:/Users/Malte/Documents/FreeCAD/models/Cinch_simple/Cinch_simple_
ws.step','2021-01-23T18:18:53',('Author'),(''),
  'Open CASCADE STEP processor 7.3','FreeCAD','Unknown');
FILE_SCHEMA(('AUTOMOTIVE_DESIGN { 1 0 10303 214 1 1 1 1 }'));
ENDSEC;
DATA;
#1 = APPLICATION_PROTOCOL_DEFINITION('international standard',
  'automotive_design',2000,#2);
#2 = APPLICATION_CONTEXT(
  'core data for automotive mechanical design processes');
#3 = SHAPE_DEFINITION_REPRESENTATION(#4,#10);
#4 = PRODUCT_DEFINITION_SHAPE('','',#5);
#5 = PRODUCT_DEFINITION('design','',#6,#9);
#6 = PRODUCT_DEFINITION_FORMATION('','',#7);
#7 = PRODUCT('Cinch_simple_ws','Cinch_simple_ws','',(#8));
#8 = PRODUCT_CONTEXT('',#2,'mechanical');
#9 = PRODUCT_DEFINITION_CONTEXT('part definition',#2,'design');
#10 = ADVANCED_BREP_SHAPE_REPRESENTATION('',(#11,#15),#355);
#11 = AXIS2_PLACEMENT_3D('',#12,#13,#14);
#12 = CARTESIAN_POINT('',(0.,0.,0.));
#13 = DIRECTION('',(0.,0.,1.));
#14 = DIRECTION('',(1.,0.,-0.));
#15 = MANIFOLD_SOLID_BREP('',#16);
#16 = CLOSED_SHELL('',(#17,#110,#165,#220,#259,#294,#328));
#17 = ADVANCED_FACE('',(#18),#31,.F.);
#18 = FACE_BOUND('',#19,.F.);
#19 = EDGE_LOOP('',(#20,#58,#82,#109));
#20 = ORIENTED_EDGE('',*,*,#21,.T.);
#21 = EDGE_CURVE('',#22,#22,#24,.T.);
#22 = VERTEX_POINT('',#23);
#23 = CARTESIAN_POINT('',(-1.842970220878E-15,-7.5,4.15));
#24 = SURFACE_CURVE('',#25,(#30,#46),.PCURVE_S1.);
#25 = CIRCLE('',#26,4.15);
#26 = AXIS2_PLACEMENT_3D('',#27,#28,#29);
#27 = CARTESIAN_POINT('',(-8.326672684689E-16,-7.5,3.330669073875E-15));
#28 = DIRECTION('',(1.110223024625E-16,1.,-4.440892098501E-16));
#29 = DIRECTION('',(-2.434464945564E-16,4.440892098501E-16,1.));
#30 = PCURVE('',#31,#40);
#31 = SURFACE_OF_REVOLUTION('',#32,#37);
#32 = CIRCLE('',#33,0.5);
#33 = AXIS2_PLACEMENT_3D('',#34,#35,#36);
#34 = CARTESIAN_POINT('',(-1.620925615953E-15,-7.5,3.65));
#35 = DIRECTION('',(1.,4.190823558987E-31,4.440892098501E-16));
#36 = DIRECTION('',(-2.218671295934E-31,1.,-4.440892098501E-16));
#37 = AXIS1_PLACEMENT('',#38,#39);
#38 = CARTESIAN_POINT('',(0.,0.,0.));
#39 = DIRECTION('',(1.110223024625E-16,1.,-4.440892098501E-16));
#40 = DEFINITIONAL_REPRESENTATION('',(#41),#45);
#41 = LINE('',#42,#43);
#42 = CARTESIAN_POINT('',(0.,1.570796326795));
#43 = VECTOR('',#44,1.);
#44 = DIRECTION('',(1.,0.));
#45 = ( GEOMETRIC_REPRESENTATION_CONTEXT(2) 
PARAMETRIC_REPRESENTATION_CONTEXT() REPRESENTATION_CONTEXT('2D SPACE',''
  ) );
#46 = PCURVE('',#47,#52);
#47 = CYLINDRICAL_SURFACE('',#48,4.15);
#48 = AXIS2_PLACEMENT_3D('',#49,#50,#51);
#49 = CARTESIAN_POINT('',(-8.326672684689E-16,-7.5,3.330669073875E-15));
#50 = DIRECTION('',(1.110223024625E-16,1.,-4.440892098501E-16));
#51 = DIRECTION('',(-2.434464945564E-16,4.440892098501E-16,1.));
#52 = DEFINITIONAL_REPRESENTATION('',(#53),#57);
#53 = LINE('',#54,#55);
#54 = CARTESIAN_POINT('',(0.,0.));
#55 = VECTOR('',#56,1.);
#56 = DIRECTION('',(1.,0.));
#57 = ( GEOMETRIC_REPRESENTATION_CONTEXT(2) 
PARAMETRIC_REPRESENTATION_CONTEXT() REPRESENTATION_CONTEXT('2D SPACE',''
  ) );
#58 = ORIENTED_EDGE('',*,*,#59,.T.);
#59 = EDGE_CURVE('',#22,#60,#62,.T.);
#60 = VERTEX_POINT('',#61);
#61 = CARTESIAN_POINT('',(-1.620925615953E-15,-8.,3.65));
#62 = SEAM_CURVE('',#63,(#68,#75),.PCURVE_S1.);
#63 = CIRCLE('',#64,0.5);
#64 = AXIS2_PLACEMENT_3D('',#65,#66,#67);
#65 = CARTESIAN_POINT('',(-2.475797344914E-15,-7.5,3.65));
#66 = DIRECTION('',(1.,-2.22044604925E-16,2.22044604925E-16));
#67 = DIRECTION('',(2.22044604925E-16,1.,-2.22044604925E-16));
#68 = PCURVE('',#31,#69);
#69 = DEFINITIONAL_REPRESENTATION('',(#70),#74);
#70 = LINE('',#71,#72);
#71 = CARTESIAN_POINT('',(0.,0.));
#72 = VECTOR('',#73,1.);
#73 = DIRECTION('',(0.,1.));
#74 = ( GEOMETRIC_REPRESENTATION_CONTEXT(2) 
PARAMETRIC_REPRESENTATION_CONTEXT() REPRESENTATION_CONTEXT('2D SPACE',''
  ) );
#75 = PCURVE('',#31,#76);
#76 = DEFINITIONAL_REPRESENTATION('',(#77),#81);
#77 = LINE('',#78,#79);
#78 = CARTESIAN_POINT('',(6.28318530718,0.));
#79 = VECTOR('',#80,1.);
#80 = DIRECTION('',(0.,1.));
#81 = ( GEOMETRIC_REPRESENTATION_CONTEXT(2) 
PARAMETRIC_REPRESENTATION_CONTEXT() REPRESENTATION_CONTEXT('2D SPACE',''
  ) );
#82 = ORIENTED_EDGE('',*,*,#83,.F.);
#83 = EDGE_CURVE('',#60,#60,#84,.T.);
#84 = SURFACE_CURVE('',#85,(#90,#97),.PCURVE_S1.);
#85 = CIRCLE('',#86,3.65);
#86 = AXIS2_PLACEMENT_3D('',#87,#88,#89);
#87 = CARTESIAN_POINT('',(-8.881784197001E-16,-8.,3.552713678801E-15));
#88 = DIRECTION('',(1.110223024625E-16,1.,-4.440892098501E-16));
#89 = DIRECTION('',(-2.007526565076E-16,4.440892098501E-16,1.));
#90 = PCURVE('',#31,#91);
#91 = DEFINITIONAL_REPRESENTATION('',(#92),#96);
#92 = LINE('',#93,#94);
#93 = CARTESIAN_POINT('',(0.,3.14159265359));
#94 = VECTOR('',#95,1.);
#95 = DIRECTION('',(1.,0.));
#96 = ( GEOMETRIC_REPRESENTATION_CONTEXT(2) 
PARAMETRIC_REPRESENTATION_CONTEXT() REPRESENTATION_CONTEXT('2D SPACE',''
  ) );
#97 = PCURVE('',#98,#103);
#98 = CYLINDRICAL_SURFACE('',#99,3.65);
#99 = AXIS2_PLACEMENT_3D('',#100,#101,#102);
#100 = CARTESIAN_POINT('',(-8.881784197001E-16,-8.,3.552713678801E-15));
#101 = DIRECTION('',(1.110223024625E-16,1.,-4.440892098501E-16));
#102 = DIRECTION('',(-2.007526565076E-16,4.440892098501E-16,1.));
#103 = DEFINITIONAL_REPRESENTATION('',(#104),#108);
#104 = LINE('',#105,#106);
#105 = CARTESIAN_POINT('',(0.,0.));
#106 = VECTOR('',#107,1.);
#107 = DIRECTION('',(1.,0.));
#108 = ( GEOMETRIC_REPRESENTATION_CONTEXT(2) 
PARAMETRIC_REPRESENTATION_CONTEXT() REPRESENTATION_CONTEXT('2D SPACE',''
  ) );
#109 = ORIENTED_EDGE('',*,*,#59,.F.);
#110 = ADVANCED_FACE('',(#111),#47,.T.);
#111 = FACE_BOUND('',#112,.T.);
#112 = EDGE_LOOP('',(#113,#114,#137,#164));
#113 = ORIENTED_EDGE('',*,*,#21,.T.);
#114 = ORIENTED_EDGE('',*,*,#115,.T.);
#115 = EDGE_CURVE('',#22,#116,#118,.T.);
#116 = VERTEX_POINT('',#117);
#117 = CARTESIAN_POINT('',(-1.842970220878E-15,-8.548717289614E-16,4.15)
  );
#118 = SEAM_CURVE('',#119,(#123,#130),.PCURVE_S1.);
#119 = LINE('',#120,#121);
#120 = CARTESIAN_POINT('',(-2.586819647377E-15,-7.5,4.15));
#121 = VECTOR('',#122,1.);
#122 = DIRECTION('',(2.22044604925E-16,1.,-2.22044604925E-16));
#123 = PCURVE('',#47,#124);
#124 = DEFINITIONAL_REPRESENTATION('',(#125),#129);
#125 = LINE('',#126,#127);
#126 = CARTESIAN_POINT('',(0.,0.));
#127 = VECTOR('',#128,1.);
#128 = DIRECTION('',(0.,1.));
#129 = ( GEOMETRIC_REPRESENTATION_CONTEXT(2) 
PARAMETRIC_REPRESENTATION_CONTEXT() REPRESENTATION_CONTEXT('2D SPACE',''
  ) );
#130 = PCURVE('',#47,#131);
#131 = DEFINITIONAL_REPRESENTATION('',(#132),#136);
#132 = LINE('',#133,#134);
#133 = CARTESIAN_POINT('',(6.28318530718,0.));
#134 = VECTOR('',#135,1.);
#135 = DIRECTION('',(0.,1.));
#136 = ( GEOMETRIC_REPRESENTATION_CONTEXT(2) 
PARAMETRIC_REPRESENTATION_CONTEXT() REPRESENTATION_CONTEXT('2D SPACE',''
  ) );
#137 = ORIENTED_EDGE('',*,*,#138,.F.);
#138 = EDGE_CURVE('',#116,#116,#139,.T.);
#139 = SURFACE_CURVE('',#140,(#145,#152),.PCURVE_S1.);
#140 = CIRCLE('',#141,4.15);
#141 = AXIS2_PLACEMENT_3D('',#142,#143,#144);
#142 = CARTESIAN_POINT('',(-2.995206249511E-31,-2.697841949839E-15,
    1.198082499804E-30));
#143 = DIRECTION('',(1.110223024625E-16,1.,-4.440892098501E-16));
#144 = DIRECTION('',(-4.440892098501E-16,4.440892098501E-16,1.));
#145 = PCURVE('',#47,#146);
#146 = DEFINITIONAL_REPRESENTATION('',(#147),#151);
#147 = LINE('',#148,#149);
#148 = CARTESIAN_POINT('',(0.,7.5));
#149 = VECTOR('',#150,1.);
#150 = DIRECTION('',(1.,0.));
#151 = ( GEOMETRIC_REPRESENTATION_CONTEXT(2) 
PARAMETRIC_REPRESENTATION_CONTEXT() REPRESENTATION_CONTEXT('2D SPACE',''
  ) );
#152 = PCURVE('',#153,#158);
#153 = PLANE('',#154);
#154 = AXIS2_PLACEMENT_3D('',#155,#156,#157);
#155 = CARTESIAN_POINT('',(-2.995206249511E-31,-2.697841949839E-15,
    1.198082499804E-30));
#156 = DIRECTION('',(1.110223024625E-16,1.,-4.440892098501E-16));
#157 = DIRECTION('',(-4.440892098501E-16,4.440892098501E-16,1.));
#158 = DEFINITIONAL_REPRESENTATION('',(#159),#163);
#159 = CIRCLE('',#160,4.15);
#160 = AXIS2_PLACEMENT_2D('',#161,#162);
#161 = CARTESIAN_POINT('',(0.,0.));
#162 = DIRECTION('',(1.,-7.128261191756E-32));
#163 = ( GEOMETRIC_REPRESENTATION_CONTEXT(2) 
PARAMETRIC_REPRESENTATION_CONTEXT() REPRESENTATION_CONTEXT('2D SPACE',''
  ) );
#164 = ORIENTED_EDGE('',*,*,#115,.F.);
#165 = ADVANCED_FACE('',(#166),#98,.F.);
#166 = FACE_BOUND('',#167,.F.);
#167 = EDGE_LOOP('',(#168,#191,#192,#193));
#168 = ORIENTED_EDGE('',*,*,#169,.F.);
#169 = EDGE_CURVE('',#60,#170,#172,.T.);
#170 = VERTEX_POINT('',#171);
#171 = CARTESIAN_POINT('',(-1.620925615953E-15,-7.5,3.65));
#172 = SEAM_CURVE('',#173,(#177,#184),.PCURVE_S1.);
#173 = LINE('',#174,#175);
#174 = CARTESIAN_POINT('',(-2.586819647377E-15,-8.,3.65));
#175 = VECTOR('',#176,1.);
#176 = DIRECTION('',(2.22044604925E-16,1.,-2.22044604925E-16));
#177 = PCURVE('',#98,#178);
#178 = DEFINITIONAL_REPRESENTATION('',(#179),#183);
#179 = LINE('',#180,#181);
#180 = CARTESIAN_POINT('',(0.,0.));
#181 = VECTOR('',#182,1.);
#182 = DIRECTION('',(0.,1.));
#183 = ( GEOMETRIC_REPRESENTATION_CONTEXT(2) 
PARAMETRIC_REPRESENTATION_CONTEXT() REPRESENTATION_CONTEXT('2D SPACE',''
  ) );
#184 = PCURVE('',#98,#185);
#185 = DEFINITIONAL_REPRESENTATION('',(#186),#190);
#186 = LINE('',#187,#188);
#187 = CARTESIAN_POINT('',(6.28318530718,0.));
#188 = VECTOR('',#189,1.);
#189 = DIRECTION('',(0.,1.));
#190 = ( GEOMETRIC_REPRESENTATION_CONTEXT(2) 
PARAMETRIC_REPRESENTATION_CONTEXT() REPRESENTATION_CONTEXT('2D SPACE',''
  ) );
#191 = ORIENTED_EDGE('',*,*,#83,.T.);
#192 = ORIENTED_EDGE('',*,*,#169,.T.);
#193 = ORIENTED_EDGE('',*,*,#194,.F.);
#194 = EDGE_CURVE('',#170,#170,#195,.T.);
#195 = SURFACE_CURVE('',#196,(#201,#208),.PCURVE_S1.);
#196 = CIRCLE('',#197,3.65);
#197 = AXIS2_PLACEMENT_3D('',#198,#199,#200);
#198 = CARTESIAN_POINT('',(-8.326672684689E-16,-7.5,3.330669073875E-15)
  );
#199 = DIRECTION('',(1.110223024625E-16,1.,-4.440892098501E-16));
#200 = DIRECTION('',(-2.159611910915E-16,4.440892098501E-16,1.));
#201 = PCURVE('',#98,#202);
#202 = DEFINITIONAL_REPRESENTATION('',(#203),#207);
#203 = LINE('',#204,#205);
#204 = CARTESIAN_POINT('',(0.,0.5));
#205 = VECTOR('',#206,1.);
#206 = DIRECTION('',(1.,0.));
#207 = ( GEOMETRIC_REPRESENTATION_CONTEXT(2) 
PARAMETRIC_REPRESENTATION_CONTEXT() REPRESENTATION_CONTEXT('2D SPACE',''
  ) );
#208 = PCURVE('',#209,#214);
#209 = PLANE('',#210);
#210 = AXIS2_PLACEMENT_3D('',#211,#212,#213);
#211 = CARTESIAN_POINT('',(-8.326672684689E-16,-7.5,3.330669073875E-15)
  );
#212 = DIRECTION('',(1.110223024625E-16,1.,-4.440892098501E-16));
#213 = DIRECTION('',(-2.159611910915E-16,4.440892098501E-16,1.));
#214 = DEFINITIONAL_REPRESENTATION('',(#215),#219);
#215 = CIRCLE('',#216,3.65);
#216 = AXIS2_PLACEMENT_2D('',#217,#218);
#217 = CARTESIAN_POINT('',(0.,0.));
#218 = DIRECTION('',(1.,-5.403156885075E-32));
#219 = ( GEOMETRIC_REPRESENTATION_CONTEXT(2) 
PARAMETRIC_REPRESENTATION_CONTEXT() REPRESENTATION_CONTEXT('2D SPACE',''
  ) );
#220 = ADVANCED_FACE('',(#221,#224),#153,.T.);
#221 = FACE_BOUND('',#222,.T.);
#222 = EDGE_LOOP('',(#223));
#223 = ORIENTED_EDGE('',*,*,#138,.T.);
#224 = FACE_BOUND('',#225,.T.);
#225 = EDGE_LOOP('',(#226));
#226 = ORIENTED_EDGE('',*,*,#227,.F.);
#227 = EDGE_CURVE('',#228,#228,#230,.T.);
#228 = VERTEX_POINT('',#229);
#229 = CARTESIAN_POINT('',(-1.620925615953E-15,-7.771561172376E-17,3.65)
  );
#230 = SURFACE_CURVE('',#231,(#236,#243),.PCURVE_S1.);
#231 = CIRCLE('',#232,3.65);
#232 = AXIS2_PLACEMENT_3D('',#233,#234,#235);
#233 = CARTESIAN_POINT('',(-8.997944700177E-32,-8.104628079764E-16,
    3.599177880071E-31));
#234 = DIRECTION('',(1.110223024625E-16,1.,-4.440892098501E-16));
#235 = DIRECTION('',(-4.440892098501E-16,4.440892098501E-16,1.));
#236 = PCURVE('',#153,#237);
#237 = DEFINITIONAL_REPRESENTATION('',(#238),#242);
#238 = CIRCLE('',#239,3.65);
#239 = AXIS2_PLACEMENT_2D('',#240,#241);
#240 = CARTESIAN_POINT('',(0.,0.));
#241 = DIRECTION('',(1.,0.));
#242 = ( GEOMETRIC_REPRESENTATION_CONTEXT(2) 
PARAMETRIC_REPRESENTATION_CONTEXT() REPRESENTATION_CONTEXT('2D SPACE',''
  ) );
#243 = PCURVE('',#244,#249);
#244 = PLANE('',#245);
#245 = AXIS2_PLACEMENT_3D('',#246,#247,#248);
#246 = CARTESIAN_POINT('',(-3.944304526105E-32,-3.552713678801E-16,
    1.577721810442E-31));
#247 = DIRECTION('',(-1.110223024625E-16,-1.,4.440892098501E-16));
#248 = DIRECTION('',(4.440892098501E-16,-4.440892098501E-16,-1.));
#249 = DEFINITIONAL_REPRESENTATION('',(#250),#258);
#250 = ( BOUNDED_CURVE() B_SPLINE_CURVE(2,(#251,#252,#253,#254,#255,#256
,#257),.UNSPECIFIED.,.T.,.F.) B_SPLINE_CURVE_WITH_KNOTS((1,2,2,2,2,1),(
    -2.094395102393,0.,2.094395102393,4.188790204786,6.28318530718,
8.377580409573),.UNSPECIFIED.) CURVE() GEOMETRIC_REPRESENTATION_ITEM() 
RATIONAL_B_SPLINE_CURVE((1.,0.5,1.,0.5,1.,0.5,1.)) REPRESENTATION_ITEM(
  '') );
#251 = CARTESIAN_POINT('',(-3.65,-4.930380657631E-32));
#252 = CARTESIAN_POINT('',(-3.65,6.321985447626));
#253 = CARTESIAN_POINT('',(1.825,3.160992723813));
#254 = CARTESIAN_POINT('',(7.3,8.939921633776E-16));
#255 = CARTESIAN_POINT('',(1.825,-3.160992723813));
#256 = CARTESIAN_POINT('',(-3.65,-6.321985447626));
#257 = CARTESIAN_POINT('',(-3.65,-4.930380657631E-32));
#258 = ( GEOMETRIC_REPRESENTATION_CONTEXT(2) 
PARAMETRIC_REPRESENTATION_CONTEXT() REPRESENTATION_CONTEXT('2D SPACE',''
  ) );
#259 = ADVANCED_FACE('',(#260,#263),#209,.F.);
#260 = FACE_BOUND('',#261,.F.);
#261 = EDGE_LOOP('',(#262));
#262 = ORIENTED_EDGE('',*,*,#194,.T.);
#263 = FACE_BOUND('',#264,.F.);
#264 = EDGE_LOOP('',(#265));
#265 = ORIENTED_EDGE('',*,*,#266,.F.);
#266 = EDGE_CURVE('',#267,#267,#269,.T.);
#267 = VERTEX_POINT('',#268);
#268 = CARTESIAN_POINT('',(-7.105427357601E-16,-7.5,1.6));
#269 = SURFACE_CURVE('',#270,(#275,#282),.PCURVE_S1.);
#270 = CIRCLE('',#271,1.6);
#271 = AXIS2_PLACEMENT_3D('',#272,#273,#274);
#272 = CARTESIAN_POINT('',(-8.326672684689E-16,-7.5,3.330669073875E-15)
  );
#273 = DIRECTION('',(1.110223024625E-16,1.,-4.440892098501E-16));
#274 = DIRECTION('',(7.632783294298E-17,4.440892098501E-16,1.));
#275 = PCURVE('',#209,#276);
#276 = DEFINITIONAL_REPRESENTATION('',(#277),#281);
#277 = CIRCLE('',#278,1.6);
#278 = AXIS2_PLACEMENT_2D('',#279,#280);
#279 = CARTESIAN_POINT('',(0.,0.));
#280 = DIRECTION('',(1.,2.922890240344E-16));
#281 = ( GEOMETRIC_REPRESENTATION_CONTEXT(2) 
PARAMETRIC_REPRESENTATION_CONTEXT() REPRESENTATION_CONTEXT('2D SPACE',''
  ) );
#282 = PCURVE('',#283,#288);
#283 = CYLINDRICAL_SURFACE('',#284,1.6);
#284 = AXIS2_PLACEMENT_3D('',#285,#286,#287);
#285 = CARTESIAN_POINT('',(-8.326672684689E-16,-7.5,3.330669073875E-15)
  );
#286 = DIRECTION('',(1.110223024625E-16,1.,-4.440892098501E-16));
#287 = DIRECTION('',(7.632783294298E-17,4.440892098501E-16,1.));
#288 = DEFINITIONAL_REPRESENTATION('',(#289),#293);
#289 = LINE('',#290,#291);
#290 = CARTESIAN_POINT('',(0.,0.));
#291 = VECTOR('',#292,1.);
#292 = DIRECTION('',(1.,0.));
#293 = ( GEOMETRIC_REPRESENTATION_CONTEXT(2) 
PARAMETRIC_REPRESENTATION_CONTEXT() REPRESENTATION_CONTEXT('2D SPACE',''
  ) );
#294 = ADVANCED_FACE('',(#295,#298),#244,.F.);
#295 = FACE_BOUND('',#296,.F.);
#296 = EDGE_LOOP('',(#297));
#297 = ORIENTED_EDGE('',*,*,#227,.F.);
#298 = FACE_BOUND('',#299,.F.);
#299 = EDGE_LOOP('',(#300));
#300 = ORIENTED_EDGE('',*,*,#301,.T.);
#301 = EDGE_CURVE('',#302,#302,#304,.T.);
#302 = VERTEX_POINT('',#303);
#303 = CARTESIAN_POINT('',(-7.105427357601E-16,3.552713678801E-16,1.6));
#304 = SURFACE_CURVE('',#305,(#310,#321),.PCURVE_S1.);
#305 = CIRCLE('',#306,1.6);
#306 = AXIS2_PLACEMENT_3D('',#307,#308,#309);
#307 = CARTESIAN_POINT('',(-3.944304526105E-32,-3.552713678801E-16,
    1.577721810442E-31));
#308 = DIRECTION('',(1.110223024625E-16,1.,-4.440892098501E-16));
#309 = DIRECTION('',(-4.440892098501E-16,4.440892098501E-16,1.));
#310 = PCURVE('',#244,#311);
#311 = DEFINITIONAL_REPRESENTATION('',(#312),#320);
#312 = ( BOUNDED_CURVE() B_SPLINE_CURVE(2,(#313,#314,#315,#316,#317,#318
,#319),.UNSPECIFIED.,.T.,.F.) B_SPLINE_CURVE_WITH_KNOTS((1,2,2,2,2,1),(
    -2.094395102393,0.,2.094395102393,4.188790204786,6.28318530718,
8.377580409573),.UNSPECIFIED.) CURVE() GEOMETRIC_REPRESENTATION_ITEM() 
RATIONAL_B_SPLINE_CURVE((1.,0.5,1.,0.5,1.,0.5,1.)) REPRESENTATION_ITEM(
  '') );
#313 = CARTESIAN_POINT('',(-1.6,-2.465190328816E-32));
#314 = CARTESIAN_POINT('',(-1.6,2.77128129211));
#315 = CARTESIAN_POINT('',(0.8,1.385640646055));
#316 = CARTESIAN_POINT('',(3.2,3.918869757272E-16));
#317 = CARTESIAN_POINT('',(0.8,-1.385640646055));
#318 = CARTESIAN_POINT('',(-1.6,-2.77128129211));
#319 = CARTESIAN_POINT('',(-1.6,-2.465190328816E-32));
#320 = ( GEOMETRIC_REPRESENTATION_CONTEXT(2) 
PARAMETRIC_REPRESENTATION_CONTEXT() REPRESENTATION_CONTEXT('2D SPACE',''
  ) );
#321 = PCURVE('',#283,#322);
#322 = DEFINITIONAL_REPRESENTATION('',(#323),#327);
#323 = LINE('',#324,#325);
#324 = CARTESIAN_POINT('',(0.,7.5));
#325 = VECTOR('',#326,1.);
#326 = DIRECTION('',(1.,0.));
#327 = ( GEOMETRIC_REPRESENTATION_CONTEXT(2) 
PARAMETRIC_REPRESENTATION_CONTEXT() REPRESENTATION_CONTEXT('2D SPACE',''
  ) );
#328 = ADVANCED_FACE('',(#329),#283,.F.);
#329 = FACE_BOUND('',#330,.F.);
#330 = EDGE_LOOP('',(#331,#332,#353,#354));
#331 = ORIENTED_EDGE('',*,*,#266,.T.);
#332 = ORIENTED_EDGE('',*,*,#333,.T.);
#333 = EDGE_CURVE('',#267,#302,#334,.T.);
#334 = SEAM_CURVE('',#335,(#339,#346),.PCURVE_S1.);
#335 = LINE('',#336,#337);
#336 = CARTESIAN_POINT('',(-2.020605904818E-15,-7.5,1.6));
#337 = VECTOR('',#338,1.);
#338 = DIRECTION('',(2.22044604925E-16,1.,-2.22044604925E-16));
#339 = PCURVE('',#283,#340);
#340 = DEFINITIONAL_REPRESENTATION('',(#341),#345);
#341 = LINE('',#342,#343);
#342 = CARTESIAN_POINT('',(0.,0.));
#343 = VECTOR('',#344,1.);
#344 = DIRECTION('',(0.,1.));
#345 = ( GEOMETRIC_REPRESENTATION_CONTEXT(2) 
PARAMETRIC_REPRESENTATION_CONTEXT() REPRESENTATION_CONTEXT('2D SPACE',''
  ) );
#346 = PCURVE('',#283,#347);
#347 = DEFINITIONAL_REPRESENTATION('',(#348),#352);
#348 = LINE('',#349,#350);
#349 = CARTESIAN_POINT('',(6.28318530718,0.));
#350 = VECTOR('',#351,1.);
#351 = DIRECTION('',(0.,1.));
#352 = ( GEOMETRIC_REPRESENTATION_CONTEXT(2) 
PARAMETRIC_REPRESENTATION_CONTEXT() REPRESENTATION_CONTEXT('2D SPACE',''
  ) );
#353 = ORIENTED_EDGE('',*,*,#301,.F.);
#354 = ORIENTED_EDGE('',*,*,#333,.F.);
#355 = ( GEOMETRIC_REPRESENTATION_CONTEXT(3) 
GLOBAL_UNCERTAINTY_ASSIGNED_CONTEXT((#359)) GLOBAL_UNIT_ASSIGNED_CONTEXT
((#356,#357,#358)) REPRESENTATION_CONTEXT('Context #1',
  '3D Context with UNIT and UNCERTAINTY') );
#356 = ( LENGTH_UNIT() NAMED_UNIT(*) SI_UNIT(.MILLI.,.METRE.) );
#357 = ( NAMED_UNIT(*) PLANE_ANGLE_UNIT() SI_UNIT($,.RADIAN.) );
#358 = ( NAMED_UNIT(*) SI_UNIT($,.STERADIAN.) SOLID_ANGLE_UNIT() );
#359 = UNCERTAINTY_MEASURE_WITH_UNIT(LENGTH_MEASURE(1.E-07),#356,
  'distance_accuracy_value','confusion accuracy');
#360 = PRODUCT_RELATED_PRODUCT_CATEGORY('part',$,(#7));
#361 = MECHANICAL_DESIGN_GEOMETRIC_PRESENTATION_REPRESENTATION('',(#362,
    #370,#377,#384,#391,#399,#406),#355);
#362 = STYLED_ITEM('color',(#363),#17);
#363 = PRESENTATION_STYLE_ASSIGNMENT((#364));
#364 = SURFACE_STYLE_USAGE(.BOTH.,#365);
#365 = SURFACE_SIDE_STYLE('',(#366));
#366 = SURFACE_STYLE_FILL_AREA(#367);
#367 = FILL_AREA_STYLE('',(#368));
#368 = FILL_AREA_STYLE_COLOUR('',#369);
#369 = COLOUR_RGB('',1.,0.878431379795,0.);
#370 = STYLED_ITEM('color',(#371),#110);
#371 = PRESENTATION_STYLE_ASSIGNMENT((#372));
#372 = SURFACE_STYLE_USAGE(.BOTH.,#373);
#373 = SURFACE_SIDE_STYLE('',(#374));
#374 = SURFACE_STYLE_FILL_AREA(#375);
#375 = FILL_AREA_STYLE('',(#376));
#376 = FILL_AREA_STYLE_COLOUR('',#369);
#377 = STYLED_ITEM('color',(#378),#165);
#378 = PRESENTATION_STYLE_ASSIGNMENT((#379));
#379 = SURFACE_STYLE_USAGE(.BOTH.,#380);
#380 = SURFACE_SIDE_STYLE('',(#381));
#381 = SURFACE_STYLE_FILL_AREA(#382);
#382 = FILL_AREA_STYLE('',(#383));
#383 = FILL_AREA_STYLE_COLOUR('',#369);
#384 = STYLED_ITEM('color',(#385),#220);
#385 = PRESENTATION_STYLE_ASSIGNMENT((#386));
#386 = SURFACE_STYLE_USAGE(.BOTH.,#387);
#387 = SURFACE_SIDE_STYLE('',(#388));
#388 = SURFACE_STYLE_FILL_AREA(#389);
#389 = FILL_AREA_STYLE('',(#390));
#390 = FILL_AREA_STYLE_COLOUR('',#369);
#391 = STYLED_ITEM('color',(#392),#259);
#392 = PRESENTATION_STYLE_ASSIGNMENT((#393));
#393 = SURFACE_STYLE_USAGE(.BOTH.,#394);
#394 = SURFACE_SIDE_STYLE('',(#395));
#395 = SURFACE_STYLE_FILL_AREA(#396);
#396 = FILL_AREA_STYLE('',(#397));
#397 = FILL_AREA_STYLE_COLOUR('',#398);
#398 = COLOUR_RGB('',0.858823537827,0.858823537827,0.858823537827);
#399 = STYLED_ITEM('color',(#400),#294);
#400 = PRESENTATION_STYLE_ASSIGNMENT((#401));
#401 = SURFACE_STYLE_USAGE(.BOTH.,#402);
#402 = SURFACE_SIDE_STYLE('',(#403));
#403 = SURFACE_STYLE_FILL_AREA(#404);
#404 = FILL_AREA_STYLE('',(#405));
#405 = FILL_AREA_STYLE_COLOUR('',#398);
#406 = STYLED_ITEM('color',(#407),#328);
#407 = PRESENTATION_STYLE_ASSIGNMENT((#408));
#408 = SURFACE_STYLE_USAGE(.BOTH.,#409);
#409 = SURFACE_SIDE_STYLE('',(#410));
#410 = SURFACE_STYLE_FILL_AREA(#411);
#411 = FILL_AREA_STYLE('',(#412));
#412 = FILL_AREA_STYLE_COLOUR('',#398);
ENDSEC;
END-ISO-10303-21;
