ISO-10303-21;
HEADER;
FILE_DESCRIPTION(('FreeCAD Model'),'2;1');
FILE_NAME('C:/Users/Malte/Documents/FreeCAD/models/BR/HP50.step',
  '2020-07-20T20:04:50',('Author'),(''),
  'Open CASCADE STEP processor 6.8','FreeCAD','Unknown');
FILE_SCHEMA(('AUTOMOTIVE_DESIGN_CC2 { 1 2 10303 214 -1 1 5 4 }'));
ENDSEC;
DATA;
#1 = APPLICATION_PROTOCOL_DEFINITION('committee draft',
  'automotive_design',1997,#2);
#2 = APPLICATION_CONTEXT(
  'core data for automotive mechanical design processes');
#3 = SHAPE_DEFINITION_REPRESENTATION(#4,#10);
#4 = PRODUCT_DEFINITION_SHAPE('','',#5);
#5 = PRODUCT_DEFINITION('design','',#6,#9);
#6 = PRODUCT_DEFINITION_FORMATION('','',#7);
#7 = PRODUCT('HP50','HP50','',(#8));
#8 = MECHANICAL_CONTEXT('',#2,'mechanical');
#9 = PRODUCT_DEFINITION_CONTEXT('part definition',#2,'design');
#10 = ADVANCED_BREP_SHAPE_REPRESENTATION('',(#11,#15),#431);
#11 = AXIS2_PLACEMENT_3D('',#12,#13,#14);
#12 = CARTESIAN_POINT('',(0.E+000,0.E+000,0.E+000));
#13 = DIRECTION('',(0.E+000,0.E+000,1.));
#14 = DIRECTION('',(1.,0.E+000,-0.E+000));
#15 = MANIFOLD_SOLID_BREP('',#16);
#16 = CLOSED_SHELL('',(#17,#114,#173,#212,#271,#310,#369,#403));
#17 = ADVANCED_FACE('',(#18),#31,.F.);
#18 = FACE_BOUND('',#19,.F.);
#19 = EDGE_LOOP('',(#20,#62,#86,#113));
#20 = ORIENTED_EDGE('',*,*,#21,.T.);
#21 = EDGE_CURVE('',#22,#22,#24,.T.);
#22 = VERTEX_POINT('',#23);
#23 = CARTESIAN_POINT('',(-1.110223024618E-016,-1.999999999986,
    33.499999999973));
#24 = SURFACE_CURVE('',#25,(#30,#46),.PCURVE_S1.);
#25 = CIRCLE('',#26,33.499999999973);
#26 = AXIS2_PLACEMENT_3D('',#27,#28,#29);
#27 = CARTESIAN_POINT('',(-1.110223024618E-016,-1.999999999986,0.E+000)
  );
#28 = DIRECTION('',(5.551115123126E-017,1.,0.E+000));
#29 = DIRECTION('',(-2.943510840379E-033,1.633976754111E-049,1.));
#30 = PCURVE('',#31,#40);
#31 = SURFACE_OF_REVOLUTION('',#32,#37);
#32 = CIRCLE('',#33,8.502086830762);
#33 = AXIS2_PLACEMENT_3D('',#34,#35,#36);
#34 = CARTESIAN_POINT('',(3.609383253812E-016,6.502086830762,
    33.499978573487));
#35 = DIRECTION('',(1.,-5.551115123126E-017,3.08148791102E-033));
#36 = DIRECTION('',(5.551115123126E-017,1.,0.E+000));
#37 = AXIS1_PLACEMENT('',#38,#39);
#38 = CARTESIAN_POINT('',(0.E+000,0.E+000,0.E+000));
#39 = DIRECTION('',(5.551115123126E-017,1.,0.E+000));
#40 = DEFINITIONAL_REPRESENTATION('',(#41),#45);
#41 = LINE('',#42,#43);
#42 = CARTESIAN_POINT('',(0.E+000,3.141590133449));
#43 = VECTOR('',#44,1.);
#44 = DIRECTION('',(1.,0.E+000));
#45 = ( GEOMETRIC_REPRESENTATION_CONTEXT(2) 
PARAMETRIC_REPRESENTATION_CONTEXT() REPRESENTATION_CONTEXT('2D SPACE',''
  ) );
#46 = PCURVE('',#47,#56);
#47 = SURFACE_OF_REVOLUTION('',#48,#53);
#48 = CIRCLE('',#49,2.5625);
#49 = AXIS2_PLACEMENT_3D('',#50,#51,#52);
#50 = CARTESIAN_POINT('',(3.122502256758E-017,0.5625,33.5));
#51 = DIRECTION('',(1.,-5.551115123126E-017,3.08148791102E-033));
#52 = DIRECTION('',(5.551115123126E-017,1.,0.E+000));
#53 = AXIS1_PLACEMENT('',#54,#55);
#54 = CARTESIAN_POINT('',(0.E+000,0.E+000,0.E+000));
#55 = DIRECTION('',(5.551115123126E-017,1.,0.E+000));
#56 = DEFINITIONAL_REPRESENTATION('',(#57),#61);
#57 = LINE('',#58,#59);
#58 = CARTESIAN_POINT('',(0.E+000,3.14159265359));
#59 = VECTOR('',#60,1.);
#60 = DIRECTION('',(1.,0.E+000));
#61 = ( GEOMETRIC_REPRESENTATION_CONTEXT(2) 
PARAMETRIC_REPRESENTATION_CONTEXT() REPRESENTATION_CONTEXT('2D SPACE',''
  ) );
#62 = ORIENTED_EDGE('',*,*,#63,.T.);
#63 = EDGE_CURVE('',#22,#64,#66,.T.);
#64 = VERTEX_POINT('',#65);
#65 = CARTESIAN_POINT('',(3.504285634308E-016,6.312759790748,25.));
#66 = SEAM_CURVE('',#67,(#72,#79),.PCURVE_S1.);
#67 = CIRCLE('',#68,8.502086830762);
#68 = AXIS2_PLACEMENT_3D('',#69,#70,#71);
#69 = CARTESIAN_POINT('',(3.609383253812E-016,6.502086830762,
    33.499978573487));
#70 = DIRECTION('',(1.,-5.551115123126E-017,3.08148791102E-033));
#71 = DIRECTION('',(5.551115123126E-017,1.,0.E+000));
#72 = PCURVE('',#31,#73);
#73 = DEFINITIONAL_REPRESENTATION('',(#74),#78);
#74 = LINE('',#75,#76);
#75 = CARTESIAN_POINT('',(0.E+000,0.E+000));
#76 = VECTOR('',#77,1.);
#77 = DIRECTION('',(0.E+000,1.));
#78 = ( GEOMETRIC_REPRESENTATION_CONTEXT(2) 
PARAMETRIC_REPRESENTATION_CONTEXT() REPRESENTATION_CONTEXT('2D SPACE',''
  ) );
#79 = PCURVE('',#31,#80);
#80 = DEFINITIONAL_REPRESENTATION('',(#81),#85);
#81 = LINE('',#82,#83);
#82 = CARTESIAN_POINT('',(6.28318530718,0.E+000));
#83 = VECTOR('',#84,1.);
#84 = DIRECTION('',(0.E+000,1.));
#85 = ( GEOMETRIC_REPRESENTATION_CONTEXT(2) 
PARAMETRIC_REPRESENTATION_CONTEXT() REPRESENTATION_CONTEXT('2D SPACE',''
  ) );
#86 = ORIENTED_EDGE('',*,*,#87,.F.);
#87 = EDGE_CURVE('',#64,#64,#88,.T.);
#88 = SURFACE_CURVE('',#89,(#94,#101),.PCURVE_S1.);
#89 = CIRCLE('',#90,25.);
#90 = AXIS2_PLACEMENT_3D('',#91,#92,#93);
#91 = CARTESIAN_POINT('',(3.504285634308E-016,6.312759790748,0.E+000));
#92 = DIRECTION('',(5.551115123126E-017,1.,0.E+000));
#93 = DIRECTION('',(-3.944304526105E-033,2.189528850508E-049,1.));
#94 = PCURVE('',#31,#95);
#95 = DEFINITIONAL_REPRESENTATION('',(#96),#100);
#96 = LINE('',#97,#98);
#97 = CARTESIAN_POINT('',(0.E+000,4.690118837249));
#98 = VECTOR('',#99,1.);
#99 = DIRECTION('',(1.,0.E+000));
#100 = ( GEOMETRIC_REPRESENTATION_CONTEXT(2) 
PARAMETRIC_REPRESENTATION_CONTEXT() REPRESENTATION_CONTEXT('2D SPACE',''
  ) );
#101 = PCURVE('',#102,#107);
#102 = CONICAL_SURFACE('',#103,25.,2.227014244034E-002);
#103 = AXIS2_PLACEMENT_3D('',#104,#105,#106);
#104 = CARTESIAN_POINT('',(3.504285634308E-016,6.312759790748,0.E+000));
#105 = DIRECTION('',(-5.551115123126E-017,-1.,-0.E+000));
#106 = DIRECTION('',(-3.944304526105E-033,2.189528850508E-049,1.));
#107 = DEFINITIONAL_REPRESENTATION('',(#108),#112);
#108 = LINE('',#109,#110);
#109 = CARTESIAN_POINT('',(-0.E+000,-0.E+000));
#110 = VECTOR('',#111,1.);
#111 = DIRECTION('',(-1.,-0.E+000));
#112 = ( GEOMETRIC_REPRESENTATION_CONTEXT(2) 
PARAMETRIC_REPRESENTATION_CONTEXT() REPRESENTATION_CONTEXT('2D SPACE',''
  ) );
#113 = ORIENTED_EDGE('',*,*,#63,.F.);
#114 = ADVANCED_FACE('',(#115),#102,.F.);
#115 = FACE_BOUND('',#116,.F.);
#116 = EDGE_LOOP('',(#117,#118,#141,#172));
#117 = ORIENTED_EDGE('',*,*,#87,.T.);
#118 = ORIENTED_EDGE('',*,*,#119,.T.);
#119 = EDGE_CURVE('',#64,#120,#122,.T.);
#120 = VERTEX_POINT('',#121);
#121 = CARTESIAN_POINT('',(7.827072323607E-015,141.,22.));
#122 = SEAM_CURVE('',#123,(#127,#134),.PCURVE_S1.);
#123 = LINE('',#124,#125);
#124 = CARTESIAN_POINT('',(3.504285634308E-016,6.312759790748,25.));
#125 = VECTOR('',#126,1.);
#126 = DIRECTION('',(5.549738616587E-017,0.999752030627,
    -2.226830163882E-002));
#127 = PCURVE('',#102,#128);
#128 = DEFINITIONAL_REPRESENTATION('',(#129),#133);
#129 = LINE('',#130,#131);
#130 = CARTESIAN_POINT('',(-0.E+000,-0.E+000));
#131 = VECTOR('',#132,1.);
#132 = DIRECTION('',(-0.E+000,-1.));
#133 = ( GEOMETRIC_REPRESENTATION_CONTEXT(2) 
PARAMETRIC_REPRESENTATION_CONTEXT() REPRESENTATION_CONTEXT('2D SPACE',''
  ) );
#134 = PCURVE('',#102,#135);
#135 = DEFINITIONAL_REPRESENTATION('',(#136),#140);
#136 = LINE('',#137,#138);
#137 = CARTESIAN_POINT('',(-6.28318530718,-0.E+000));
#138 = VECTOR('',#139,1.);
#139 = DIRECTION('',(-0.E+000,-1.));
#140 = ( GEOMETRIC_REPRESENTATION_CONTEXT(2) 
PARAMETRIC_REPRESENTATION_CONTEXT() REPRESENTATION_CONTEXT('2D SPACE',''
  ) );
#141 = ORIENTED_EDGE('',*,*,#142,.F.);
#142 = EDGE_CURVE('',#120,#120,#143,.T.);
#143 = SURFACE_CURVE('',#144,(#149,#156),.PCURVE_S1.);
#144 = CIRCLE('',#145,22.);
#145 = AXIS2_PLACEMENT_3D('',#146,#147,#148);
#146 = CARTESIAN_POINT('',(7.827072323607E-015,141.,0.E+000));
#147 = DIRECTION('',(5.551115123126E-017,1.,-0.E+000));
#148 = DIRECTION('',(0.E+000,0.E+000,1.));
#149 = PCURVE('',#102,#150);
#150 = DEFINITIONAL_REPRESENTATION('',(#151),#155);
#151 = LINE('',#152,#153);
#152 = CARTESIAN_POINT('',(-0.E+000,-134.6872402092));
#153 = VECTOR('',#154,1.);
#154 = DIRECTION('',(-1.,-0.E+000));
#155 = ( GEOMETRIC_REPRESENTATION_CONTEXT(2) 
PARAMETRIC_REPRESENTATION_CONTEXT() REPRESENTATION_CONTEXT('2D SPACE',''
  ) );
#156 = PCURVE('',#157,#162);
#157 = PLANE('',#158);
#158 = AXIS2_PLACEMENT_3D('',#159,#160,#161);
#159 = CARTESIAN_POINT('',(7.827072323607E-015,141.,0.E+000));
#160 = DIRECTION('',(-5.551115123126E-017,-1.,-0.E+000));
#161 = DIRECTION('',(0.E+000,0.E+000,-1.));
#162 = DEFINITIONAL_REPRESENTATION('',(#163),#171);
#163 = ( BOUNDED_CURVE() B_SPLINE_CURVE(2,(#164,#165,#166,#167,#168,#169
,#170),.UNSPECIFIED.,.F.,.F.) B_SPLINE_CURVE_WITH_KNOTS((1,2,2,2,2,1),(
    -2.094395102393,0.E+000,2.094395102393,4.188790204786,6.28318530718,
8.377580409573),.UNSPECIFIED.) CURVE() GEOMETRIC_REPRESENTATION_ITEM() 
RATIONAL_B_SPLINE_CURVE((1.,0.5,1.,0.5,1.,0.5,1.)) REPRESENTATION_ITEM(
  '') );
#164 = CARTESIAN_POINT('',(-22.,0.E+000));
#165 = CARTESIAN_POINT('',(-22.,38.105117766515));
#166 = CARTESIAN_POINT('',(11.,19.052558883258));
#167 = CARTESIAN_POINT('',(44.,5.388445916248E-015));
#168 = CARTESIAN_POINT('',(11.,-19.05255888325));
#169 = CARTESIAN_POINT('',(-22.,-38.10511776651));
#170 = CARTESIAN_POINT('',(-22.,0.E+000));
#171 = ( GEOMETRIC_REPRESENTATION_CONTEXT(2) 
PARAMETRIC_REPRESENTATION_CONTEXT() REPRESENTATION_CONTEXT('2D SPACE',''
  ) );
#172 = ORIENTED_EDGE('',*,*,#119,.F.);
#173 = ADVANCED_FACE('',(#174,#209),#157,.F.);
#174 = FACE_BOUND('',#175,.T.);
#175 = EDGE_LOOP('',(#176));
#176 = ORIENTED_EDGE('',*,*,#177,.T.);
#177 = EDGE_CURVE('',#178,#178,#180,.T.);
#178 = VERTEX_POINT('',#179);
#179 = CARTESIAN_POINT('',(7.827072323607E-015,141.,23.));
#180 = SURFACE_CURVE('',#181,(#186,#197),.PCURVE_S1.);
#181 = CIRCLE('',#182,23.);
#182 = AXIS2_PLACEMENT_3D('',#183,#184,#185);
#183 = CARTESIAN_POINT('',(7.827072323607E-015,141.,0.E+000));
#184 = DIRECTION('',(5.551115123126E-017,1.,-0.E+000));
#185 = DIRECTION('',(0.E+000,0.E+000,1.));
#186 = PCURVE('',#157,#187);
#187 = DEFINITIONAL_REPRESENTATION('',(#188),#196);
#188 = ( BOUNDED_CURVE() B_SPLINE_CURVE(2,(#189,#190,#191,#192,#193,#194
,#195),.UNSPECIFIED.,.T.,.F.) B_SPLINE_CURVE_WITH_KNOTS((1,2,2,2,2,1),(
    -2.094395102393,0.E+000,2.094395102393,4.188790204786,6.28318530718,
8.377580409573),.UNSPECIFIED.) CURVE() GEOMETRIC_REPRESENTATION_ITEM() 
RATIONAL_B_SPLINE_CURVE((1.,0.5,1.,0.5,1.,0.5,1.)) REPRESENTATION_ITEM(
  '') );
#189 = CARTESIAN_POINT('',(-23.,0.E+000));
#190 = CARTESIAN_POINT('',(-23.,39.837168574084));
#191 = CARTESIAN_POINT('',(11.5,19.918584287042));
#192 = CARTESIAN_POINT('',(46.,5.633375276078E-015));
#193 = CARTESIAN_POINT('',(11.5,-19.91858428704));
#194 = CARTESIAN_POINT('',(-23.,-39.83716857408));
#195 = CARTESIAN_POINT('',(-23.,0.E+000));
#196 = ( GEOMETRIC_REPRESENTATION_CONTEXT(2) 
PARAMETRIC_REPRESENTATION_CONTEXT() REPRESENTATION_CONTEXT('2D SPACE',''
  ) );
#197 = PCURVE('',#198,#203);
#198 = CONICAL_SURFACE('',#199,25.851049582747,2.227014244034E-002);
#199 = AXIS2_PLACEMENT_3D('',#200,#201,#202);
#200 = CARTESIAN_POINT('',(7.216449660064E-016,13.,0.E+000));
#201 = DIRECTION('',(-5.551115123126E-017,-1.,-0.E+000));
#202 = DIRECTION('',(-3.814452981377E-033,2.117446763137E-049,1.));
#203 = DEFINITIONAL_REPRESENTATION('',(#204),#208);
#204 = LINE('',#205,#206);
#205 = CARTESIAN_POINT('',(-0.E+000,-128.));
#206 = VECTOR('',#207,1.);
#207 = DIRECTION('',(-1.,-0.E+000));
#208 = ( GEOMETRIC_REPRESENTATION_CONTEXT(2) 
PARAMETRIC_REPRESENTATION_CONTEXT() REPRESENTATION_CONTEXT('2D SPACE',''
  ) );
#209 = FACE_BOUND('',#210,.T.);
#210 = EDGE_LOOP('',(#211));
#211 = ORIENTED_EDGE('',*,*,#142,.F.);
#212 = ADVANCED_FACE('',(#213),#198,.T.);
#213 = FACE_BOUND('',#214,.T.);
#214 = EDGE_LOOP('',(#215,#248,#269,#270));
#215 = ORIENTED_EDGE('',*,*,#216,.T.);
#216 = EDGE_CURVE('',#217,#217,#219,.T.);
#217 = VERTEX_POINT('',#218);
#218 = CARTESIAN_POINT('',(7.216449660064E-016,13.,25.851049582747));
#219 = SURFACE_CURVE('',#220,(#225,#232),.PCURVE_S1.);
#220 = CIRCLE('',#221,25.851049582747);
#221 = AXIS2_PLACEMENT_3D('',#222,#223,#224);
#222 = CARTESIAN_POINT('',(7.216449660064E-016,13.,0.E+000));
#223 = DIRECTION('',(5.551115123126E-017,1.,0.E+000));
#224 = DIRECTION('',(-3.814452981377E-033,2.117446763137E-049,1.));
#225 = PCURVE('',#198,#226);
#226 = DEFINITIONAL_REPRESENTATION('',(#227),#231);
#227 = LINE('',#228,#229);
#228 = CARTESIAN_POINT('',(-0.E+000,-0.E+000));
#229 = VECTOR('',#230,1.);
#230 = DIRECTION('',(-1.,-0.E+000));
#231 = ( GEOMETRIC_REPRESENTATION_CONTEXT(2) 
PARAMETRIC_REPRESENTATION_CONTEXT() REPRESENTATION_CONTEXT('2D SPACE',''
  ) );
#232 = PCURVE('',#233,#238);
#233 = PLANE('',#234);
#234 = AXIS2_PLACEMENT_3D('',#235,#236,#237);
#235 = CARTESIAN_POINT('',(7.216449660064E-016,13.,0.E+000));
#236 = DIRECTION('',(-5.551115123126E-017,-1.,-0.E+000));
#237 = DIRECTION('',(2.858191685583E-033,-1.586615109063E-049,-1.));
#238 = DEFINITIONAL_REPRESENTATION('',(#239),#247);
#239 = ( BOUNDED_CURVE() B_SPLINE_CURVE(2,(#240,#241,#242,#243,#244,#245
,#246),.UNSPECIFIED.,.T.,.F.) B_SPLINE_CURVE_WITH_KNOTS((1,2,2,2,2,1),(
    -2.094395102393,0.E+000,2.094395102393,4.188790204786,6.28318530718,
8.377580409573),.UNSPECIFIED.) CURVE() GEOMETRIC_REPRESENTATION_ITEM() 
RATIONAL_B_SPLINE_CURVE((1.,0.5,1.,0.5,1.,0.5,1.)) REPRESENTATION_ITEM(
  '') );
#240 = CARTESIAN_POINT('',(-25.85104958274,0.E+000));
#241 = CARTESIAN_POINT('',(-25.85104958274,44.775331306301));
#242 = CARTESIAN_POINT('',(12.925524791374,22.38766565315));
#243 = CARTESIAN_POINT('',(51.702099165495,6.331681025222E-015));
#244 = CARTESIAN_POINT('',(12.925524791374,-22.38766565315));
#245 = CARTESIAN_POINT('',(-25.85104958274,-44.7753313063));
#246 = CARTESIAN_POINT('',(-25.85104958274,0.E+000));
#247 = ( GEOMETRIC_REPRESENTATION_CONTEXT(2) 
PARAMETRIC_REPRESENTATION_CONTEXT() REPRESENTATION_CONTEXT('2D SPACE',''
  ) );
#248 = ORIENTED_EDGE('',*,*,#249,.T.);
#249 = EDGE_CURVE('',#217,#178,#250,.T.);
#250 = SEAM_CURVE('',#251,(#255,#262),.PCURVE_S1.);
#251 = LINE('',#252,#253);
#252 = CARTESIAN_POINT('',(7.216449660064E-016,13.,25.851049582747));
#253 = VECTOR('',#254,1.);
#254 = DIRECTION('',(5.549738616587E-017,0.999752030627,
    -2.226830163882E-002));
#255 = PCURVE('',#198,#256);
#256 = DEFINITIONAL_REPRESENTATION('',(#257),#261);
#257 = LINE('',#258,#259);
#258 = CARTESIAN_POINT('',(-0.E+000,-0.E+000));
#259 = VECTOR('',#260,1.);
#260 = DIRECTION('',(-0.E+000,-1.));
#261 = ( GEOMETRIC_REPRESENTATION_CONTEXT(2) 
PARAMETRIC_REPRESENTATION_CONTEXT() REPRESENTATION_CONTEXT('2D SPACE',''
  ) );
#262 = PCURVE('',#198,#263);
#263 = DEFINITIONAL_REPRESENTATION('',(#264),#268);
#264 = LINE('',#265,#266);
#265 = CARTESIAN_POINT('',(-6.28318530718,-0.E+000));
#266 = VECTOR('',#267,1.);
#267 = DIRECTION('',(-0.E+000,-1.));
#268 = ( GEOMETRIC_REPRESENTATION_CONTEXT(2) 
PARAMETRIC_REPRESENTATION_CONTEXT() REPRESENTATION_CONTEXT('2D SPACE',''
  ) );
#269 = ORIENTED_EDGE('',*,*,#177,.F.);
#270 = ORIENTED_EDGE('',*,*,#249,.F.);
#271 = ADVANCED_FACE('',(#272,#307),#233,.F.);
#272 = FACE_BOUND('',#273,.T.);
#273 = EDGE_LOOP('',(#274));
#274 = ORIENTED_EDGE('',*,*,#275,.T.);
#275 = EDGE_CURVE('',#276,#276,#278,.T.);
#276 = VERTEX_POINT('',#277);
#277 = CARTESIAN_POINT('',(7.216449660064E-016,13.,34.5));
#278 = SURFACE_CURVE('',#279,(#284,#295),.PCURVE_S1.);
#279 = CIRCLE('',#280,34.5);
#280 = AXIS2_PLACEMENT_3D('',#281,#282,#283);
#281 = CARTESIAN_POINT('',(7.216449660064E-016,13.,0.E+000));
#282 = DIRECTION('',(5.551115123126E-017,1.,0.E+000));
#283 = DIRECTION('',(-2.858191685583E-033,1.586615109063E-049,1.));
#284 = PCURVE('',#233,#285);
#285 = DEFINITIONAL_REPRESENTATION('',(#286),#294);
#286 = ( BOUNDED_CURVE() B_SPLINE_CURVE(2,(#287,#288,#289,#290,#291,#292
,#293),.UNSPECIFIED.,.T.,.F.) B_SPLINE_CURVE_WITH_KNOTS((1,2,2,2,2,1),(
    -2.094395102393,0.E+000,2.094395102393,4.188790204786,6.28318530718,
8.377580409573),.UNSPECIFIED.) CURVE() GEOMETRIC_REPRESENTATION_ITEM() 
RATIONAL_B_SPLINE_CURVE((1.,0.5,1.,0.5,1.,0.5,1.)) REPRESENTATION_ITEM(
  '') );
#287 = CARTESIAN_POINT('',(-34.5,0.E+000));
#288 = CARTESIAN_POINT('',(-34.5,59.755752861126));
#289 = CARTESIAN_POINT('',(17.25,29.877876430563));
#290 = CARTESIAN_POINT('',(69.,8.450062914117E-015));
#291 = CARTESIAN_POINT('',(17.25,-29.87787643056));
#292 = CARTESIAN_POINT('',(-34.5,-59.75575286112));
#293 = CARTESIAN_POINT('',(-34.5,0.E+000));
#294 = ( GEOMETRIC_REPRESENTATION_CONTEXT(2) 
PARAMETRIC_REPRESENTATION_CONTEXT() REPRESENTATION_CONTEXT('2D SPACE',''
  ) );
#295 = PCURVE('',#296,#301);
#296 = CYLINDRICAL_SURFACE('',#297,34.5);
#297 = AXIS2_PLACEMENT_3D('',#298,#299,#300);
#298 = CARTESIAN_POINT('',(1.063113329302E-031,1.915134717478E-015,
    0.E+000));
#299 = DIRECTION('',(5.551115123126E-017,1.,0.E+000));
#300 = DIRECTION('',(-3.08148791102E-033,1.710569414459E-049,1.));
#301 = DEFINITIONAL_REPRESENTATION('',(#302),#306);
#302 = LINE('',#303,#304);
#303 = CARTESIAN_POINT('',(0.E+000,13.));
#304 = VECTOR('',#305,1.);
#305 = DIRECTION('',(1.,0.E+000));
#306 = ( GEOMETRIC_REPRESENTATION_CONTEXT(2) 
PARAMETRIC_REPRESENTATION_CONTEXT() REPRESENTATION_CONTEXT('2D SPACE',''
  ) );
#307 = FACE_BOUND('',#308,.T.);
#308 = EDGE_LOOP('',(#309));
#309 = ORIENTED_EDGE('',*,*,#216,.F.);
#310 = ADVANCED_FACE('',(#311),#296,.T.);
#311 = FACE_BOUND('',#312,.T.);
#312 = EDGE_LOOP('',(#313,#346,#367,#368));
#313 = ORIENTED_EDGE('',*,*,#314,.T.);
#314 = EDGE_CURVE('',#315,#315,#317,.T.);
#315 = VERTEX_POINT('',#316);
#316 = CARTESIAN_POINT('',(0.E+000,1.915134717478E-015,34.5));
#317 = SURFACE_CURVE('',#318,(#323,#330),.PCURVE_S1.);
#318 = CIRCLE('',#319,34.5);
#319 = AXIS2_PLACEMENT_3D('',#320,#321,#322);
#320 = CARTESIAN_POINT('',(1.063113329302E-031,1.915134717478E-015,
    0.E+000));
#321 = DIRECTION('',(5.551115123126E-017,1.,0.E+000));
#322 = DIRECTION('',(-3.08148791102E-033,1.710569414459E-049,1.));
#323 = PCURVE('',#296,#324);
#324 = DEFINITIONAL_REPRESENTATION('',(#325),#329);
#325 = LINE('',#326,#327);
#326 = CARTESIAN_POINT('',(0.E+000,0.E+000));
#327 = VECTOR('',#328,1.);
#328 = DIRECTION('',(1.,0.E+000));
#329 = ( GEOMETRIC_REPRESENTATION_CONTEXT(2) 
PARAMETRIC_REPRESENTATION_CONTEXT() REPRESENTATION_CONTEXT('2D SPACE',''
  ) );
#330 = PCURVE('',#331,#336);
#331 = PLANE('',#332);
#332 = AXIS2_PLACEMENT_3D('',#333,#334,#335);
#333 = CARTESIAN_POINT('',(1.109335647967E-031,1.998401444325E-015,
    0.E+000));
#334 = DIRECTION('',(-5.551115123126E-017,-1.,-0.E+000));
#335 = DIRECTION('',(3.08148791102E-033,-1.710569414459E-049,-1.));
#336 = DEFINITIONAL_REPRESENTATION('',(#337),#345);
#337 = ( BOUNDED_CURVE() B_SPLINE_CURVE(2,(#338,#339,#340,#341,#342,#343
,#344),.UNSPECIFIED.,.T.,.F.) B_SPLINE_CURVE_WITH_KNOTS((1,2,2,2,2,1),(
    -2.094395102393,0.E+000,2.094395102393,4.188790204786,6.28318530718,
8.377580409573),.UNSPECIFIED.) CURVE() GEOMETRIC_REPRESENTATION_ITEM() 
RATIONAL_B_SPLINE_CURVE((1.,0.5,1.,0.5,1.,0.5,1.)) REPRESENTATION_ITEM(
  '') );
#338 = CARTESIAN_POINT('',(-34.5,0.E+000));
#339 = CARTESIAN_POINT('',(-34.5,59.755752861126));
#340 = CARTESIAN_POINT('',(17.25,29.877876430563));
#341 = CARTESIAN_POINT('',(69.,8.450062914117E-015));
#342 = CARTESIAN_POINT('',(17.25,-29.87787643056));
#343 = CARTESIAN_POINT('',(-34.5,-59.75575286112));
#344 = CARTESIAN_POINT('',(-34.5,0.E+000));
#345 = ( GEOMETRIC_REPRESENTATION_CONTEXT(2) 
PARAMETRIC_REPRESENTATION_CONTEXT() REPRESENTATION_CONTEXT('2D SPACE',''
  ) );
#346 = ORIENTED_EDGE('',*,*,#347,.T.);
#347 = EDGE_CURVE('',#315,#276,#348,.T.);
#348 = SEAM_CURVE('',#349,(#353,#360),.PCURVE_S1.);
#349 = LINE('',#350,#351);
#350 = CARTESIAN_POINT('',(0.E+000,1.915134717478E-015,34.5));
#351 = VECTOR('',#352,1.);
#352 = DIRECTION('',(5.551115123126E-017,1.,0.E+000));
#353 = PCURVE('',#296,#354);
#354 = DEFINITIONAL_REPRESENTATION('',(#355),#359);
#355 = LINE('',#356,#357);
#356 = CARTESIAN_POINT('',(0.E+000,0.E+000));
#357 = VECTOR('',#358,1.);
#358 = DIRECTION('',(0.E+000,1.));
#359 = ( GEOMETRIC_REPRESENTATION_CONTEXT(2) 
PARAMETRIC_REPRESENTATION_CONTEXT() REPRESENTATION_CONTEXT('2D SPACE',''
  ) );
#360 = PCURVE('',#296,#361);
#361 = DEFINITIONAL_REPRESENTATION('',(#362),#366);
#362 = LINE('',#363,#364);
#363 = CARTESIAN_POINT('',(6.28318530718,0.E+000));
#364 = VECTOR('',#365,1.);
#365 = DIRECTION('',(0.E+000,1.));
#366 = ( GEOMETRIC_REPRESENTATION_CONTEXT(2) 
PARAMETRIC_REPRESENTATION_CONTEXT() REPRESENTATION_CONTEXT('2D SPACE',''
  ) );
#367 = ORIENTED_EDGE('',*,*,#275,.F.);
#368 = ORIENTED_EDGE('',*,*,#347,.F.);
#369 = ADVANCED_FACE('',(#370,#400),#331,.F.);
#370 = FACE_BOUND('',#371,.T.);
#371 = EDGE_LOOP('',(#372));
#372 = ORIENTED_EDGE('',*,*,#373,.T.);
#373 = EDGE_CURVE('',#374,#374,#376,.T.);
#374 = VERTEX_POINT('',#375);
#375 = CARTESIAN_POINT('',(-6.162975822039E-033,1.887379141863E-015,36.)
  );
#376 = SURFACE_CURVE('',#377,(#382,#393),.PCURVE_S1.);
#377 = CIRCLE('',#378,36.);
#378 = AXIS2_PLACEMENT_3D('',#379,#380,#381);
#379 = CARTESIAN_POINT('',(1.047705889747E-031,1.887379141863E-015,
    0.E+000));
#380 = DIRECTION('',(5.551115123126E-017,1.,0.E+000));
#381 = DIRECTION('',(-3.08148791102E-033,1.710569414459E-049,1.));
#382 = PCURVE('',#331,#383);
#383 = DEFINITIONAL_REPRESENTATION('',(#384),#392);
#384 = ( BOUNDED_CURVE() B_SPLINE_CURVE(2,(#385,#386,#387,#388,#389,#390
,#391),.UNSPECIFIED.,.T.,.F.) B_SPLINE_CURVE_WITH_KNOTS((1,2,2,2,2,1),(
    -2.094395102393,0.E+000,2.094395102393,4.188790204786,6.28318530718,
8.377580409573),.UNSPECIFIED.) CURVE() GEOMETRIC_REPRESENTATION_ITEM() 
RATIONAL_B_SPLINE_CURVE((1.,0.5,1.,0.5,1.,0.5,1.)) REPRESENTATION_ITEM(
  '') );
#385 = CARTESIAN_POINT('',(-36.,0.E+000));
#386 = CARTESIAN_POINT('',(-36.,62.35382907248));
#387 = CARTESIAN_POINT('',(18.,31.17691453624));
#388 = CARTESIAN_POINT('',(72.,8.817456953861E-015));
#389 = CARTESIAN_POINT('',(18.,-31.17691453624));
#390 = CARTESIAN_POINT('',(-36.,-62.35382907248));
#391 = CARTESIAN_POINT('',(-36.,0.E+000));
#392 = ( GEOMETRIC_REPRESENTATION_CONTEXT(2) 
PARAMETRIC_REPRESENTATION_CONTEXT() REPRESENTATION_CONTEXT('2D SPACE',''
  ) );
#393 = PCURVE('',#47,#394);
#394 = DEFINITIONAL_REPRESENTATION('',(#395),#399);
#395 = LINE('',#396,#397);
#396 = CARTESIAN_POINT('',(0.E+000,1.792110769143));
#397 = VECTOR('',#398,1.);
#398 = DIRECTION('',(1.,0.E+000));
#399 = ( GEOMETRIC_REPRESENTATION_CONTEXT(2) 
PARAMETRIC_REPRESENTATION_CONTEXT() REPRESENTATION_CONTEXT('2D SPACE',''
  ) );
#400 = FACE_BOUND('',#401,.T.);
#401 = EDGE_LOOP('',(#402));
#402 = ORIENTED_EDGE('',*,*,#314,.F.);
#403 = ADVANCED_FACE('',(#404),#47,.F.);
#404 = FACE_BOUND('',#405,.F.);
#405 = EDGE_LOOP('',(#406,#407,#429,#430));
#406 = ORIENTED_EDGE('',*,*,#373,.T.);
#407 = ORIENTED_EDGE('',*,*,#408,.T.);
#408 = EDGE_CURVE('',#374,#22,#409,.T.);
#409 = SEAM_CURVE('',#410,(#415,#422),.PCURVE_S1.);
#410 = CIRCLE('',#411,2.5625);
#411 = AXIS2_PLACEMENT_3D('',#412,#413,#414);
#412 = CARTESIAN_POINT('',(3.122502256758E-017,0.5625,33.5));
#413 = DIRECTION('',(1.,-5.551115123126E-017,3.08148791102E-033));
#414 = DIRECTION('',(5.551115123126E-017,1.,0.E+000));
#415 = PCURVE('',#47,#416);
#416 = DEFINITIONAL_REPRESENTATION('',(#417),#421);
#417 = LINE('',#418,#419);
#418 = CARTESIAN_POINT('',(0.E+000,0.E+000));
#419 = VECTOR('',#420,1.);
#420 = DIRECTION('',(0.E+000,1.));
#421 = ( GEOMETRIC_REPRESENTATION_CONTEXT(2) 
PARAMETRIC_REPRESENTATION_CONTEXT() REPRESENTATION_CONTEXT('2D SPACE',''
  ) );
#422 = PCURVE('',#47,#423);
#423 = DEFINITIONAL_REPRESENTATION('',(#424),#428);
#424 = LINE('',#425,#426);
#425 = CARTESIAN_POINT('',(6.28318530718,0.E+000));
#426 = VECTOR('',#427,1.);
#427 = DIRECTION('',(0.E+000,1.));
#428 = ( GEOMETRIC_REPRESENTATION_CONTEXT(2) 
PARAMETRIC_REPRESENTATION_CONTEXT() REPRESENTATION_CONTEXT('2D SPACE',''
  ) );
#429 = ORIENTED_EDGE('',*,*,#21,.F.);
#430 = ORIENTED_EDGE('',*,*,#408,.F.);
#431 = ( GEOMETRIC_REPRESENTATION_CONTEXT(3) 
GLOBAL_UNCERTAINTY_ASSIGNED_CONTEXT((#435)) GLOBAL_UNIT_ASSIGNED_CONTEXT
((#432,#433,#434)) REPRESENTATION_CONTEXT('Context #1',
  '3D Context with UNIT and UNCERTAINTY') );
#432 = ( LENGTH_UNIT() NAMED_UNIT(*) SI_UNIT(.MILLI.,.METRE.) );
#433 = ( NAMED_UNIT(*) PLANE_ANGLE_UNIT() SI_UNIT($,.RADIAN.) );
#434 = ( NAMED_UNIT(*) SI_UNIT($,.STERADIAN.) SOLID_ANGLE_UNIT() );
#435 = UNCERTAINTY_MEASURE_WITH_UNIT(LENGTH_MEASURE(1.E-007),#432,
  'distance_accuracy_value','confusion accuracy');
#436 = PRODUCT_TYPE('part',$,(#7));
#437 = MECHANICAL_DESIGN_GEOMETRIC_PRESENTATION_REPRESENTATION('',(#438)
  ,#431);
#438 = STYLED_ITEM('color',(#439),#15);
#439 = PRESENTATION_STYLE_ASSIGNMENT((#440,#446));
#440 = SURFACE_STYLE_USAGE(.BOTH.,#441);
#441 = SURFACE_SIDE_STYLE('',(#442));
#442 = SURFACE_STYLE_FILL_AREA(#443);
#443 = FILL_AREA_STYLE('',(#444));
#444 = FILL_AREA_STYLE_COLOUR('',#445);
#445 = COLOUR_RGB('',0.349019616842,0.349019616842,0.349019616842);
#446 = CURVE_STYLE('',#447,POSITIVE_LENGTH_MEASURE(0.1),#445);
#447 = DRAUGHTING_PRE_DEFINED_CURVE_FONT('continuous');
ENDSEC;
END-ISO-10303-21;
